Sound will begin in 5 seconds

Regret

01234567891011121314151617181920212223
E
B
G
D
A
E
B
0 1 2 3 4 5 6 7 8 9 10 11 12 13 14 15 16 17 18 19 20 21 22 23
Song Science #1: How Pros Use 6 Chords to Write Hit Songs
(/) Slide Up  (\) Slide Down  (h) Hammer On  (p) Pull Off  (b) Bend (r) Release (v) Vibrato

Stave 1:

E|--------------------------------------------------------------------------------------------
B|--------------------------------------------------------------------------------------------
G|--------------------------------------------------------------------------------------------
D|--------4-----------4--------4-----------4-----------4-----------4--------4-----------4-----
A|-----5-----5-----5--------5-----5-----5-----5-----5-----5-----5--------5-----5-----5-----5--
E|--3-----------3--------0-----------0-----------7-----------7--------5-----------5-----------

Stave 2:

E|--------------------------------------------------------------------------------------------
B|--------------------------------------------------------------------------------------------
G|--------------------------------------------------------------------------------------------
D|--------4-----------4--------4-----------4-----------4-----------4--------4-----------4-----
A|-----5-----5-----5--------5-----5-----5-----5-----5-----5-----5--------5-----5-----5-----5--
E|--3-----------3--------0-----------0-----------7-----------7--------5-----------5-----------

Stave 3:

E|--------------------------
B|--------------------------
G|--------------------------
D|--------4-----------4-----
A|-----5-----5-----5--------
E|--3-----------3--------0--

Stave 4:

E|-----------0-----------------------0--------------------0-----------------------0-----------
B|-----3--------3-----3-----3-----------3-----3-----3--------3-----3-----3-----------3-----3--
G|-----------------------------4--------------------------------------------4-----------------
D|--------4--------4-----4--------4--------4-----------4--------4-----4--------4--------4-----
A|--2--------------------------------------------0--------------------------------------------
E|--------------------------------------------------------------------------------------------

Stave 5:

E|-----------0-----------------------0--------------------0-----------------------0-----------
B|-----3--------3-----3-----3-----------3-----3-----3--------3-----3-----3-----------3-----3--
G|-----------------------------4--------------------------------------------4-----------------
D|--------4--------4-----4--------4--------4-----------4--------4-----4--------4--------4-----
A|--------------------------------------------------------------------------------------------
E|--3--------------------------------------------0--------------------------------------------

Stave 6:

E|--------------------------------------------------------------------------------------------------
B|--------------3-----------------------3-----------------------3-----------------------3-----------
G|--------0--------0-----0--------0--------0-----0--------0--------0-----0--------0--------0-----0--
D|-----4-----4--------4--------4-----4--------4--------4-----4--------4--------4-----4--------4-----
A|--2-----------------------5-----------------------------------------------------------------------
E|--------------------------------------------------0-----------------------0-----------------------

Stave 7:

E|--2--2--x--x--x--x--0--0--x--x--3--3--x--x--x--x--3--3--
B|--3--3--x--x--x--x--2--2--x--x--3--3--x--x--x--x--3--3--
G|--4--4--x--x--x--x--2--2--x--x--0--0--x--x--x--x--0--0--
D|--4--4--x--x--x--x--2--2--x--x--0--0--x--x--x--x--0--0--
A|--2--2--x--x--x--x--0--0--x--x--2--2--x--x--x--x--2--2--
E|--------x--x--x--x--------x--x--3--3--x--x--x--x--3--3--

Stave 8:

E|-----------0-----------------------0--------------------0-----------------------0-----------
B|-----3--------3-----3-----3-----------3-----3-----3--------3-----3-----3-----------3-----3--
G|-----------------------------4--------------------------------------------4-----------------
D|--------4--------4-----4--------4--------4-----------4--------4-----4--------4--------4-----
A|--2--------------------------------------------0--------------------------------------------
E|--------------------------------------------------------------------------------------------

Stave 9:

E|-----------0-----------------------0--------------------0-----------------------0-----------
B|-----3--------3-----3-----3-----------3-----3-----3--------3-----3-----3-----------3-----3--
G|-----------------------------4--------------------------------------------4-----------------
D|--------4--------4-----4--------4--------4-----------4--------4-----4--------4--------4-----
A|--------------------------------------------------------------------------------------------
E|--3--------------------------------------------0--------------------------------------------

Stave 10:

E|--------------------------------------------------------------------------------------------------
B|--------------3-----------------------3-----------------------3-----------------------3-----------
G|--------0--------0-----0--------0--------0-----0--------0--------0-----0--------0--------0-----0--
D|-----4-----4--------4--------4-----4--------4--------4-----4--------4--------4-----4--------4-----
A|--2-----------------------5-----------------------------------------------------------------------
E|--------------------------------------------------0-----------------------0-----------------------

Stave 11:

E|--2--2--x--x--x--x--0--0--x--x--3--3--x--x--x--x--3--3--
B|--3--3--x--x--x--x--2--2--x--x--3--3--x--x--x--x--3--3--
G|--4--4--x--x--x--x--2--2--x--x--0--0--x--x--x--x--0--0--
D|--4--4--x--x--x--x--2--2--x--x--0--0--x--x--x--x--0--0--
A|--2--2--x--x--x--x--0--0--x--x--2--2--x--x--x--x--2--2--
E|--------x--x--x--x--------x--x--3--3--x--x--x--x--3--3--

Stave 12:

E|--2--2--x--x--0--0--0--0--0--0--0--
B|--3--3--x--x--2--2--0--0--0--0--0--
G|--4--4--x--x--2--2--1--1--1--2--1--
D|--4--4--x--x--2--2--2--2--2--2--2--
A|--2--2--x--x--0--0--2--2--2--2--2--
E|--------x--x--------0--0--0--0--0--

Stave 13:

E|-----------0-----------------------0--------------------0-----------------------0-----------
B|-----3--------3-----3-----3-----------3-----3-----3--------3-----3-----3-----------3-----3--
G|-----------------------------4--------------------------------------------4-----------------
D|--------4--------4-----4--------4--------4-----------4--------4-----4--------4--------4-----
A|--2--------------------------------------------0--------------------------------------------
E|--------------------------------------------------------------------------------------------

Stave 14:

E|-----------0-----------------------0--------------------0-----------------------0-----------
B|-----3--------3-----3-----3-----------3-----3-----3--------3-----3-----3-----------3-----3--
G|-----------------------------4--------------------------------------------4-----------------
D|--------4--------4-----4--------4--------4-----------4--------4-----4--------4--------4-----
A|--------------------------------------------------------------------------------------------
E|--3--------------------------------------------0--------------------------------------------

Stave 15:

E|-----------0-----------------------0--------------------0-----------------------0-----------
B|-----3--------3-----3-----3-----------3-----3-----3--------3-----3-----3-----------3-----3--
G|-----------------------------4--------------------------------------------4-----------------
D|--------4--------4-----4--------4--------4-----------4--------4-----4--------4--------4-----
A|--2--------------------------------------------0--------------------------------------------
E|--------------------------------------------------------------------------------------------

Stave 16:

E|-----------0-----------------------0--------------------0-----------
B|-----3--------3-----3-----3-----------3-----3-----3--------3-----3--
G|-----------------------------4--------------------------------------
D|--------4--------4-----4--------4--------4-----------4--------4-----
A|--------------------------------------------------------------------
E|--3--------------------------------------------0--------------------

http://www.guitartabcreator.com
Guitar Tab Creator is intended to store guitar tab created through the tool. It currently does not support in-line text editing. Any text you place in here will be lost. If you need to comment on your tab, please use the "Tab Notes" section located below.