Sound will begin in 5 seconds

C MINOR ) arppegio (monster run)

01234567891011121314151617181920212223
E
B
G
D
A
E
B
0 1 2 3 4 5 6 7 8 9 10 11 12 13 14 15 16 17 18 19 20 21 22 23
Song Science #1: How Pros Use 6 Chords to Write Hit Songs
(/) Slide Up  (\) Slide Down  (h) Hammer On  (p) Pull Off  (b) Bend (r) Release (v) Vibrato

Stave 1:

E|---------------------------------------------------6--8--10--8--6----------------------
B|------------------------------------------------8------------------8-------------------
G|-----------3--5-----------------7------------7------------------------8----------------
D|--5-----5--------5-----------5-----8------8------------------------------8-------------
A|-----3--------------6-----6-----------10------------------------------------10---------
E|-----------------------8--------------------------------------------------------11-----

Stave 2:

E|--------------------------------------11--15--11----------------------
B|----------------------------------13--------------13------------------
G|----------------------10--13--12----------------------12--------------
D|------10--13------12--------------------------------------12----------
A|--10----------10----------------------------------------------13------
E|------------------------------------------------------------------15--

http://www.guitartabcreator.com
Guitar Tab Creator is intended to store guitar tab created through the tool. It currently does not support in-line text editing. Any text you place in here will be lost. If you need to comment on your tab, please use the "Tab Notes" section located below.