Sound will begin in 5 seconds

Rush Rifts

Chords
01234567891011121314151617181920212223
E
B
G
D
A
E
B
0 1 2 3 4 5 6 7 8 9 10 11 12 13 14 15 16 17 18 19 20 21 22 23
Song Science #1: How Pros Use 6 Chords to Write Hit Songs
(/) Slide Up  (\) Slide Down  (h) Hammer On  (p) Pull Off  (b) Bend (r) Release (v) Vibrato

Stave 1:

E|-------------------------------------------------------------------------------------------------
B|-------------------------------------------------------------------------------------------------
G|-------------------------------------------------------------------------------------------------
D|-------------------------------------------------------------------------------------------------
A|-3---3-3-3---3-3-3-3-----3---3-3-3---3-3-3-3-----3---3-3-3---3-3-3-3-----3---3-3-3---3-3-3-3-----
E|---2-------2---------2-2---2-------2---------2-2---2-------2---------2-2---2-------2---------2-2-

Stave 2:

E|-
B|-
G|-
D|-
A|-
E|-

Stave 3:

E|-------------------------------------------------------------
B|-6-5-3-------------------------------------------------------
G|-------5-4-2-----5-4-2-------------------------------------0-
D|-------------5-3-------5-3-2-----------------------2-0-------
A|-----------------------------5-3-----3-2-0-------3-----2b3---
E|---------------------------------1-1-------3-1-1-------------

Stave 4:

E|---------------------------------------------------------------------------------
B|---------------------------------------------------------------------------------
G|---------------------------------------2---------------------------------------2-
D|---0-4-0-2---0-2-0-----0-4-0-2---0-2-0-----0-4-0-2---0-2-0-----0-4-0-2---0-2-0---
A|-----------0-------2-----------0-------------------0-------2-----------0---------
E|-3-------------------3-------------------3-------------------3-------------------

Stave 5:

E|-
B|-
G|-
D|-
A|-
E|-

Stave 6:

E|-2-----0-----2-----2---4-----4-----5-----5---------0---3-----------
B|---3-----3-----2-----2-----5---5-----5-----5-0---0-------3---2-----
G|-----2-------------------6-------------2-------1-----------------2-
D|-0---------0-----4-------------------------2---------0---------2---
A|---------------------4-4---------4-0-----------------------2-0-----
E|-------------2-------------------------------0---------3-----------

Stave 7:

E|-5-----7-----4-----5-----4-------5-----7-----4-----5-----4-------
B|---0-----0-----0-----0-----7-5-----0-----0-----0-----0-----7-5---
G|-----6-----6-----6-----6-------6-----6-----6-----6-----6-------6-
D|-----------------------------------------------------------------
A|-----------------------------------------------------------------
E|-----------------------------------------------------------------

Stave 8:

E|-
B|-
G|-
D|-
A|-
E|-

Stave 9:

E|---12-------11--------12-------11------
B|------10-12----9-10------10-12----9-10-
G|-9------------------9------------------
D|---------------------------------------
A|---------------------------------------
E|---------------------------------------

Stave 10:

E|-2-2-3-3---------3-----3-------3-------
B|-3-3-3-3---------3-----3-------3-2-0-2-
G|-2-2-0-0---------0-----0-------0-2-0-2-
D|-0-0-2-2-------2-----0-------0---2-0-2-
A|--------0-2-3-----2-----0-1-----0-0-0-
E|--------------------------------------

Stave 11:

E|--------------------------------------
B|--------------------------------------
G|------------4-4---2-----------4-4---2-
D|----------2-4-4---2---------2-4-4---2-
A|------0-4---2-2---0-----0-4---2-2---0-
E|--0-4-----------4---0-4-----------4---

http://www.guitartabcreator.com
Guitar Tab Creator is intended to store guitar tab created through the tool. It currently does not support in-line text editing. Any text you place in here will be lost. If you need to comment on your tab, please use the "Tab Notes" section located below.