Sound will begin in 5 seconds

Ja mizérií osudu jsem pronásledován

01234567891011121314151617181920212223
E
B
G
D
A
E
B
0 1 2 3 4 5 6 7 8 9 10 11 12 13 14 15 16 17 18 19 20 21 22 23
(/) Slide Up  (\) Slide Down  (h) Hammer On  (p) Pull Off  (b) Bend (r) Release (v) Vibrato

Motiv 1:

D|--------------------------------------------------------------------------------------|--
A|--5-----5--5-----5--5-----------------------4-----4--4-----4--4-----------------------|--
E|--------------------------------------------------------------------------------------|--
C|-----------------------0-----0--0-----0--0-----------------------0-----0--0-----0--0--|--

Motiv 2:

D|--------------------------------------------------------------
A|--1-----1--1--1-----------------------------------------------
E|-----------------2-----2--2--2--------------------------------
C|--------------------------------2-----2--2--2--3--3--2--2--2--

Motiv 3

D|--------------------------------------------------------------------------------
A|--5-----5--5--5-----5-----5--5--4--5--5-----------------------------------------
E|-----------------------------------------6-----6--6--6-----6-----6--6--7--6--6--
C|--------------------------------------------------------------------------------

Repetice Motiv 2

D|--
A|--
E|--
C|--

Intermezzo:

D|--------7--8--7-----------5--7--5-----------3--5--3--------------|--
A|--5-----------------3-----------------1-----------------0--1-----|--
E|-----------------------------------------------------------------|--
C|-----------------------------------------------------------------|--

Blacková sypačka:

D|-----------------------------------------------------------------------------|--
A|-----------------------------------------------------------------------------|--
E|--------------------------1--------------------------1-----------------------|--
C|--2--2--2--2--2--2--2--2-----2--2--2--2--2--2--2--2-----2--2--2--2--2--2--2--|--

Repetice motivů 2,3

D|--
A|--
E|--
C|--

finale

D|-----------------------|--------------------------|--------------------------|--------------------------
A|-----------------------|--------------------------|--------------------------|--------------------------
E|-----------------------|--1-----------------------|--0--0--0--0--0--0--0--0--|--3--0--0--0--0--0--0--0--
C|--2--2--2--2--2--2--2--|-----2--2--2--2--2--2--2--|--------------------------|--------------------------

http://www.guitartabcreator.com
Guitar Tab Creator is intended to store guitar tab created through the tool. It currently does not support in-line text editing. Any text you place in here will be lost. If you need to comment on your tab, please use the "Tab Notes" section located below.