Sound will begin in 5 seconds

Útok

01234567891011121314151617181920212223
E
B
G
D
A
E
B
0 1 2 3 4 5 6 7 8 9 10 11 12 13 14 15 16 17 18 19 20 21 22 23
(/) Slide Up  (\) Slide Down  (h) Hammer On  (p) Pull Off  (b) Bend (r) Release (v) Vibrato

Intro motiv - solo

G|--------------------------------------------------------------------------------------------------------
D|--------------------------------------------------------------------------------------------------------
A|--------7--8--7-----------------7--8--7-----------------------------------------------------------------
E|--0--0-----------0-----0--0--0-----------0-----0--------------------------------------------8--7--0-----
B|--------------------7-----------------------7-----6--6--8--6--6--6--9--8--6--6--8--6--6--6--------------

Intro 2 - hrát 2x za sebou

G|--------------------------------------------------------|--|--
D|--------------------------------------------------------|--|--
A|--------------------------------------------------------|--|--
E|--------------------------------------------8--7--0-----|--|--
B|--6--6--8--6--6--6--9--8--6--6--8--6--6--6--------------|--|--

Verse 1:

G|------------------------------------------------------------------------------
D|------------------------------------------------------------------------------
A|------------------------------------------------------------------------------
E|--------------------------------------------8--7--10--10--10--10--8--8--8--8--
B|--6--6--8--6--6--6--9--8--6--6--8--6--6--6------------------------------------



G|------------------------------------------------------------------------------
D|------------------------------------------------------------------------------
A|--------------------------------------------------7--7--7--7--10--10--10--10--
E|--------------------------------------------8--7------------------------------
B|--6--6--8--6--6--6--9--8--6--6--8--6--6--6------------------------------------

Funus:

G|--------------------------------------------
D|--------------------------------------------
A|--------------------------------------------
E|--0-----0-----0--0--3--2--0-----0--0--0--0--
B|-----------------------------2--------------

Verse 2:

G|--------------------------------
D|--------2--3--2-----------------
A|--------------------------------
E|--0--0-----------0--2--0--0--0--
B|--------------------------------

Verse 1:

G|--
D|--
A|--
E|--
B|--

Funus:

G|--
D|--
A|--
E|--
B|--

Verse 2:

G|--
D|--
A|--
E|--
B|--

http://www.guitartabcreator.com
Guitar Tab Creator is intended to store guitar tab created through the tool. It currently does not support in-line text editing. Any text you place in here will be lost. If you need to comment on your tab, please use the "Tab Notes" section located below.