Sound will begin in 5 seconds

Slash - The Unholy

01234567891011121314151617181920212223
E
B
G
D
A
E
B
0 1 2 3 4 5 6 7 8 9 10 11 12 13 14 15 16 17 18 19 20 21 22 23
Song Science #1: How Pros Use 6 Chords to Write Hit Songs
(/) Slide Up  (\) Slide Down  (h) Hammer On  (p) Pull Off  (b) Bend (r) Release (v) Vibrato

Stave 1:

Eb|----------------------------------------------|--
Bb|----------------------------------------------|--
Gb|----------------------------------------------|--
Db|--3----3--3--2----2--2--5----5--5--4----4--4--|--
Ab|--3----3--3--2----2--2--5----5--5--5----5--5--|--
Eb|--1----1--1--0----0--0--3----3--3--2----2--2--|--

Stave 2:

Eb|----------------------------------------------------------------------
Bb|-----------9v----12--12b13--10v----12b13----9p8h9v----12--12b13--10v--
Gb|----10v---------------------------------------------------------------
Db|----------------------------------------------------------------------
Ab|----------------------------------------------------------------------
Eb|----------------------------------------------------------------------

Stave 3:

Eb|--------------|------------------------------------------------------------|--
Bb|--------------|---------------------------------------------------------8--|--
Gb|--------------|---------------------------------------------------------7--|--
Db|--2--2--2--2--|--5--5--5--5--4--4--4--4---------------------------------6--|--
Ab|--2--2--2--2--|--5--5--5--5--4--4--4--4--10-----------------------------7--|--
Eb|--0--0--0--0--|--3--3--3--3--2--2--2--2--8-----7--8--9--10--11--12/--0-----|--

Stave 4:

Eb|------------------------------------------------------------------------
Bb|------------------------------------------------------------------------
Gb|------------------------------------------------------------------------
Db|----5--5--5--5--4--4--4--4--3-------------------------------------------
Ab|----5--5--5--5--4--4--4--4--3-------------------------------------------
Eb|----3--3--3--3--2--2--2--2--1--1--2--3--4--5v--------4v------3v--/8\2v--

Stave 5:

Eb|--------------------------------------------------------------
Bb|--------------------------------------------------------------
Gb|--10--10--10--10--9--9--9--9--12--12--12--12--11--11--11--11--
Db|--------------------------------------------------------------
Ab|--8---8---8---8---7--7--7--7--10--10--10--10--9---9---9---9---
Eb|--------------------------------------------------------------

Stave 6:

Eb|-------------------------------------------------------------|----------------------------------|--
Bb|-------------------------------------------------------------|----------------------------------|--
Gb|---------------------------------------7---------------------|----------------------------------|--
Db|---------12-------------12---------------------------12------|----------12--------------12------|--
Ab|-----10------10-----10------10-----10-----10-----10------10--|------12------12------12------12--|--
Eb|--8--------------7--------------6-------------8--------------|--10--------------10--------------|--

Stave 7:

Eb|--3----3--3----5----5--5----1----1--1----------------------|--
Bb|--3----3--3----6----6--6----1----1--1----5----5------------|--
Gb|--4----4--4----7----7--7----2----2--2----5----5------------|--
Db|--5----5--5----7----7--7----3----3--3----5----5--3/2-------|--
Ab|--5----5--5----5----5--5----3----3--3----3----3-------1p0--|--
Eb|--3----3--3-----------------1----1--1----------------------|--

Stave 8:

Eb|-------------------------------------------------------------------------------------------
Bb|------20------18b20--18v----15--17--17b18r17b18--15--15--13--15b17--15b17--13--------------
Gb|--19------19-------------------------------------------------------------------14b15--12v--
Db|-------------------------------------------------------------------------------------------
Ab|-------------------------------------------------------------------------------------------
Eb|-------------------------------------------------------------------------------------------

Stave 9:

Eb|---------------------------------------------------------------------
Bb|------20------20b21----20--18--20--20b21--18b20--18p17p15--18p17p15--
Gb|--19------19---------------------------------------------------------
Db|---------------------------------------------------------------------
Ab|---------------------------------------------------------------------
Eb|---------------------------------------------------------------------

http://www.guitartabcreator.com
Guitar Tab Creator is intended to store guitar tab created through the tool. It currently does not support in-line text editing. Any text you place in here will be lost. If you need to comment on your tab, please use the "Tab Notes" section located below.