Sound will begin in 5 seconds

Admirável chip novo

Chords
01234567891011121314151617181920212223
E
B
G
D
A
E
B
0 1 2 3 4 5 6 7 8 9 10 11 12 13 14 15 16 17 18 19 20 21 22 23
Song Science #1: How Pros Use 6 Chords to Write Hit Songs
(/) Slide Up  (\) Slide Down  (h) Hammer On  (p) Pull Off  (b) Bend (r) Release (v) Vibrato

Stave 1:

E|--------------------------------------------------------------------------------------------
B|--------------------------------------------------------------------------------------------
G|--------------5-----7--------------3-----2--------------5-----7--------3--5--3-----2--------
D|--------------5-----7--------------3-----2--------------5-----7--------3--5--3-----2-----0--
A|--0--0--0--0--3--0--5--0--0--0--0--1--0--0--0--0--0--0--3--0--5--0--0--1--3--1--0--0-----0--
D|--0--0--0--0-----0-----0--0--0--0-----0-----0--0--0--0-----0-----0--0-----------0--------0--

Stave 2:

E|--5--------------------
B|-----6-----8--6--5--6--
G|--------7--------------
D|-----------------------
A|-----------------------
D|-----------------------

Stave 3:

E|-----------5--------5--------------------
B|-----6--------6--------6-----8--6--5--6--
G|--7-----7--------7--------5--------------
D|-----------------------------------------
A|-----------------------------------------
D|-----------------------------------------

Stave 4:

E|-----------------------------
B|--3--------------------------
G|--2--------------------------
D|--0--------0--0--2--3--2--0--
A|--0--------0--0--2--3--2--0--
D|--0--------0--0--2--3--2--0--

Stave 5:

E|--------------
B|--3--6--5--3--
G|--2--5--4--2--
D|--0--3--2--0--
A|--0--3--2--0--
D|--0--3--2--0--

Stave 6:

E|--------------------------------------------------
B|--------------------------------------------------
G|--------------------------------------------------
D|--5--5-----5--5-----5--5-----5--5-----5--5--5--5--
A|--5--5-----5--5-----5--5-----5--5-----5--5--5--5--
D|--5--5-----5--5-----5--5-----5--5-----5--5--5--5--

Stave 7:

E|--------------------
B|--------------------
G|--------------------
D|--0--0--2--3--2--0--
A|--0--0--2--3--2--0--
D|--0--0--2--3--2--0--

http://www.guitartabcreator.com
Guitar Tab Creator is intended to store guitar tab created through the tool. It currently does not support in-line text editing. Any text you place in here will be lost. If you need to comment on your tab, please use the "Tab Notes" section located below.