Sound will begin in 5 seconds

Filho Não Temas - Débora Miranda

01234567891011121314151617181920212223
E
B
G
D
A
E
B
0 1 2 3 4 5 6 7 8 9 10 11 12 13 14 15 16 17 18 19 20 21 22 23
Song Science #1: How Pros Use 6 Chords to Write Hit Songs
(/) Slide Up  (\) Slide Down  (h) Hammer On  (p) Pull Off  (b) Bend (r) Release (v) Vibrato

Stave 1:

E|-----------------------17-----------19-----------------17---------17---------17---------17------
B|--14b15--14b15-----15------15v--17------17v-----14h15------14h15------14h15------14h15------14--
G|------------------------------------------------------------------------------------------------
D|------------------------------------------------------------------------------------------------
A|------------------------------------------------------------------------------------------------
E|------------------------------------------------------------------------------------------------

Stave 2:

E|-----------9--12p9-------------9--12p9------------------------------------------
B|-------10-----------10-----10-----------10p8h10p8\7h8p7-------------------------
G|--4/9-------------------9--------------------------------9p7--------------------
D|--------------------------------------------------------------9p7/12--11--7--9--
A|--------------------------------------------------------------------------------
E|--------------------------------------------------------------------------------

http://www.guitartabcreator.com
Guitar Tab Creator is intended to store guitar tab created through the tool. It currently does not support in-line text editing. Any text you place in here will be lost. If you need to comment on your tab, please use the "Tab Notes" section located below.