ZARA ZARA

Chords

01234567891011121314151617181920212223
E
B
G
D
A
E
B
0 1 2 3 4 5 6 7 8 9 10 11 12 13 14 15 16 17 18 19 20 21 22 23
(/) Slide Up  (\) Slide Down  (h) Hammer On  (p) Pull Off  (b) Bend (r) Release (v) Vibrato

E|-----------------------------|-----------------------------------|--
B|-----------------------------|-----------------------5-----------|--
G|--4--5--4--5--4--5--7--4--5--|--4--5--7--4--5--4--4-----7--5--4--|--
D|-----------------------------|-----------------------------------|--
A|-----------------------------|-----------------------------------|--
E|-----------------------------|-----------------------------------|--



E|-----------------------------------------|--
B|-----------------------------------------|--
G|--5--4--5--4--5--7--4--5-----5--4--------|--
D|--------------------------7--------9--5--|--
A|-----------------------------------------|--
E|-----------------------------------------|--



E|-----------------|--------------|-----------------|--
B|-----------------|--------------|-----------------|--
G|--------5--4-----|-----4--------|--------------4--|--
D|--7--7--------5--|--5-----7-----|-----5-----------|--
A|-----------------|-----------8--|--8-----8--7-----|--
E|-----------------|--------------|-----------------|--



E|--
B|--
G|--
D|--
A|--
E|--
							http://www.guitartabcreator.com
[[],[],[],[],[],[]]

Member for

8 years 8 months
Submitted by Daniel kiran on Sun, 2011-10-16 06:50