Sound will begin in 5 seconds

Watermelon Lovin Feat. Daner

01234567891011121314151617181920212223
E
B
G
D
A
E
B
0 1 2 3 4 5 6 7 8 9 10 11 12 13 14 15 16 17 18 19 20 21 22 23
Song Science #1: How Pros Use 6 Chords to Write Hit Songs
(/) Slide Up  (\) Slide Down  (h) Hammer On  (p) Pull Off  (b) Bend (r) Release (v) Vibrato

Stave 1:

E|------------------------------------------------------------------------------------------
B|------------------------------------------------------------------------------------------
G|--3/6--5--6p5--6p5--6p5-----5/3v--5--5/6--5------6p5-----5--------6p5--6p5--6p5-----5/3v--
D|-------------------------6----------------------------6-----3--3-----------------6--------
A|------------------------------------------------------------------------------------------
E|------------------------------------------------------------------------------------------

Stave 2:

E|-----------------------------------------------------------------------------------------
B|-------------------------------------------------------------6h8h9--9/11--9--8h9---------
G|--5--5/6--5--------6p5-----5-------------------3h5h6--5h6h8-----------------------10--8--
D|------------------------6-----3--3------3h5h6--------------------------------------------
A|-----------------------------------------------------------------------------------------
E|-----------------------------------------------------------------------------------------

Stave 3:

E|-----------------------9p8---------9p8---------9p8---------9p8---------------------------
B|--------9--8--8h9-----------9-----------9-----------9-----------9------9/11--9--8h9------
G|--8h10-------------10----------10----------10----------10----------10----------------10--
D|-----------------------------------------------------------------------------------------
A|-----------------------------------------------------------------------------------------
E|-----------------------------------------------------------------------------------------

Stave 4:

E|----------------------------------------------------------------------------------
B|------8--9--8------9--9--9--9--9--9--9--9--8--8--8--8--8--8--8--8-----------------
G|--10---------------------------------------------------------------10b12r10v------
D|----------------------------------------------------------------------------------
A|----------------------------------------------------------------------------------
E|----------------------------------------------------------------------------------

Stave 5:

E|-------------------------------------------------------------------------------------------
B|-------------------------------------------------------------------------------------------
G|--10b12r10--10b12r10--10b12r10-------------------------------------------------------8h10--
D|--------------------------------11-------------8--10--11--10------10--8v--8--10--11--------
A|------------------------------------8--10--11-----------------11---------------------------
E|-------------------------------------------------------------------------------------------

Stave 6:

E|---------16--15------------------------------------------------------------------------------
B|-----------------16/14--13--13h14------------------------------------------------------------
G|--8--10----------------------------15--13--12h13------12--13---------------------------------
D|--------------------------------------------------15----------13--11--10--8--10--11--10v--v--
A|---------------------------------------------------------------------------------------------
E|---------------------------------------------------------------------------------------------

Stave 7:

E|-------------------------------------------------------------
B|-------------------------------------------------------------
G|--6--5--3--5--3----------------------------------------------
D|-----------------6--5--6--5--3-------------------------------
A|--------------------------------6--4--3--4--6--4/3-----------
E|----------------------------------------------------6--4--4--

http://www.guitartabcreator.com
Guitar Tab Creator is intended to store guitar tab created through the tool. It currently does not support in-line text editing. Any text you place in here will be lost. If you need to comment on your tab, please use the "Tab Notes" section located below.