Sound will begin in 5 seconds

The Cougars Tale

01234567891011121314151617181920212223
E
B
G
D
A
E
B
0 1 2 3 4 5 6 7 8 9 10 11 12 13 14 15 16 17 18 19 20 21 22 23
Song Science #1: How Pros Use 6 Chords to Write Hit Songs
(/) Slide Up  (\) Slide Down  (h) Hammer On  (p) Pull Off  (b) Bend (r) Release (v) Vibrato

Stave 1:

E|----------------------------------------
B|----------------------------------------
G|-------4--2--2/5--5p4-------------------
D|--2--------------------5--4-----4--4/7--
A|-----------------------------5----------
E|----------------------------------------

Stave 2:

E|-------------------------------------------7h8p7/5h7p5--------------
B|----------------------------------------8---------------7-----------
G|-----5--4--5v------------------------9---------------------7--------
D|--2---------------4--7--5--4v-----9---------------------------7p4v--
A|---------------5---------------7------------------------------------
E|--------------------------------------------------------------------

Stave 3:

E|--8---8---8---8---7--7--7--7--5--5--5--5--x--x--8--7--8--7--
B|--8---8---8---8---8--8--8--8--7--7--7--7--x--x--8--8--8--8--
G|--9---9---9---9---7--7--7--7--7--7--7--7--x--x--7--7--7--7--
D|--10--10--10--10--------------------------------------------
A|------------------------------------------------------------
E|------------------------------------------------------------

Stave 4:

E|--8/15--14--12--------------------------------------------------------------------------
B|----------------13----------------------------------------------------------------------
G|--------------------12------12--7--9--7/5--4h7p5p4--------------------------------------
D|------------------------14--------------------------7--5--4-----------------------------
A|-------------------------------------------------------------7--5-----------------------
E|-------------------------------------------------------------------2--3--5--7--5--3--2--

Stave 5:

E|-----------------------------------------------------------------------------------------------------3--
B|-----------------------------------------------------------------------------3-----------3--------3-----
G|--------4-----------4-----------------------------------2--------2--------2-----------2--------4--------
D|--------5-----------5-----------4-----------4-----------4--------4-----4-----------4--------5-----------
A|--------7-----------7-----------5-----------5-----5--5--5--5--5--5--5-----------5-----------------------
E|--0--0-----0--0--0-----0--0--0-----0--0--0-----0--------------------------------------------------------

Stave 6:

E|-----------3-----------------------------------3-----------3--3--3--3--3--
B|--------3--------------3-----------3--------3-----------3-----3--3--3--3--
G|-----4--------------2-----------2--------4-----------4--------4--4--4--4--
D|--5--------------4-----------4--------5-----------5-----------5--5--5--5--
A|--------------5-----------5-----------------------------------------------
E|--------------------------------------------------------------------------

Stave 7:

E|-----------------------------------------------------------------------------------------
B|-----------------------------------------------------------------------------------------
G|-----------------------------------------------------------------------------------------
D|--4-----5-----4-----5-----------------------------------7--9--10p9--7--9--10--9--10--12--
A|-----5-----7-----5-----7------------7--9--10--7--9--10-----------------------------------
E|--------------------------7--8--10-------------------------------------------------------

Stave 8:

E|--------------------------------12p10------12p10------12p10------12p10------14p12------
B|-------------10--12--13p12--12---------10---------10---------10---------10---------12--
G|--9--11--12----------------------------------------------------------------------------
D|---------------------------------------------------------------------------------------
A|---------------------------------------------------------------------------------------
E|---------------------------------------------------------------------------------------

Stave 9:

E|--14p12------14p12------14p12------20p17------20p17------20p17------20p17------17p14------
B|---------12---------12---------12---------19---------19---------19---------19---------15--
G|------------------------------------------------------------------------------------------
D|------------------------------------------------------------------------------------------
A|------------------------------------------------------------------------------------------
E|------------------------------------------------------------------------------------------

Stave 10:

E|--17p14------17p14------17p14------15p12------------------------------12/10------------------
B|---------15---------15---------15---------13----------------------13---------12--------------
G|----------------------------------------------12--------------12-----------------11----------
D|--------------------------------------------------14------14-------------------------12------
A|------------------------------------------------------15---------------------------------10--
E|---------------------------------------------------------------------------------------------

Stave 11:

E|---------------------------------------------------------------------------------------------
B|---------------------------------------------------------------------------------------------
G|---------------------------------------------------------------------------------------------
D|-------------------------------------------------------------------------------------12------
A|--9--10--12--10--12--14--12--14--15--15--14--12--14--12--10--12--10--9--10v------15------15--
E|-----------------------------------------------------------------------------12--------------

Stave 12:

E|--------------------------------------------------------------------------
B|----------------------------------------------------------------------12--
G|----------------------------------------------------------------------12--
D|----------12--------------12--------------12--------------------------12--
A|------14------14------15------15------14------14------12--10--9--10v------
E|--12--------------12--------------12--------------10----------------------

http://www.guitartabcreator.com
Guitar Tab Creator is intended to store guitar tab created through the tool. It currently does not support in-line text editing. Any text you place in here will be lost. If you need to comment on your tab, please use the "Tab Notes" section located below.