What dose it take whole thing

Chords

01234567891011121314151617181920212223
E
B
G
D
A
E
B
0 1 2 3 4 5 6 7 8 9 10 11 12 13 14 15 16 17 18 19 20 21 22 23
Intro
E|--------------------------------|
B|--------------------------------|
G|--7--7--7--2--2-------------2---|
D|--7--7--7--2--2-------------2---|
A|--5--5--4--0--0-------0--3--0---|
E|-----------------0--3-----------|  X4

Intro lead (Played on last two times)
E|--------------------------------|
B|--------------------------------|
G|--7--7--6--2--2--------2--5--2--|
D|-----------------2--5-----------|
A|--------------------------------|
E|--------------------------------|  X2

Break
E|----------------------------|-----------------------------|--------------------|
B|----------------------------|-----------------------------|--------------------|
G|--2--2----2--2--2--2--2--2--|--2--2--2--2--2--2--2--2--2--|--2p0---------------|
D|--2--2----2--2--2--2--2--2--|--2--2--2--2--2--2--2--2--2--|-------2p0----------|
A|--0--0----0--0--0--0--0--0--|--0--0--0--0--0--0--0--0--0--|------------3p0--3--|
E|----------------------------|-----------------------------|--------------------|

Verse 1
E|-----------------------------------------|-----3--3----3--3--3----3--3--3----3--3--3--|
B|-----------------------------------------|-----3--3----3--3--3----3--3--3----3--3--3--|
G|--2--2----2--2--2----2--2--2----2--2--2--|--2--0--0----0--0--0----0--0--0----0--0--0--|
D|--2--2----2--2--2----2--2--2----2--2--2--|--2--0--0----0--0--0----0--0--0----0--0--0--|
A|--0--0----0--0--0----0--0--0----0--0--0--|--0--2--2----2--2--2----2--2--2----2--2--2--|
E|-----------------------------------------|-----3--3----3--3--3----3--3--3----3--3--3--|



E|--3--2--2----2--2--2----2--2--2----2--2--2-----|-----------------------------------------|
B|--3--3--3----3--3--3----3--3--3----3--3--3-----|-----------------------------------------|
G|--0--2--2----2--2--2----2--2--2----2--2--2-----|--2--2----2--2--2------2p0---------------|
D|--0--0--0----0--0--0----0--0--0----0--0--0-----|--2--2----2--2--2-----------2p0----------|
A|--2--------------------------------------------|--0--0----0--0--0----------------3p0--3--|
E|--3-----------------------------------------3--|-----------------------------------------|  X2

Chorus 1
E|--3--|--2--|----------------------------------------------|
B|--3--|--3--|----------------------------------------------|
G|--0--|--2--|--2--2----2--2--2----2--2--2----2--2--2----2--|
D|--0--|--0--|--2--2----2--2--2----2--2--2----2--2--2----2--|
A|--2--|-----|--0--0----0--0--0----0--0--0----0--0--0----0--|
E|--3--|-----|----------------------------------------------|

E|--3--|--2--|----------------------------------------------|
B|--3--|--3--|----------------------------------------------|
G|--0--|--2--|--2--2----2--2--2----2--2--2----2--2--2----2--|
D|--0--|--0--|--2--2----2--2--2----2--2--2----2--2--2----2--|
A|--2--|-----|--0--0----0--0--0----0--0--0----0--0--0----0--|
E|--3--|-----|----------------------------------------------|

E|--3--|--2-----|-----------------------------------------|
B|--3--|--3-----|-----------------------------------------|
G|--0--|--2-----|--2--2----2--2--2------2p0---------------|
D|--0--|--0-----|--2--2----2--2--2-----------2p0----------|
A|--2--|--------|--0--0----0--0--0----------------3p0--3--|
E|--3--|-----3--|-----------------------------------------| 

E|--3--|--2--2--|
B|--3--|--3--3--|
G|--0--|--2--2--|
D|--0--|--0--0--|
A|--2--|--------|
E|--3--|--------|

Break
E|----------------------------|-----------------------------|--------------------|
B|----------------------------|-----------------------------|--------------------|
G|--2--2----2--2--2--2--2--2--|--2--2--2--2--2--2--2--2--2--|--2p0---------------|
D|--2--2----2--2--2--2--2--2--|--2--2--2--2--2--2--2--2--2--|-------2p0----------|
A|--0--0----0--0--0--0--0--0--|--0--0--0--0--0--0--0--0--0--|------------3p0--3--|
E|----------------------------|-----------------------------|--------------------|

Verse 2
E|-----------------------------------------|-----3--3----3--3--3----3--3--3----3--3--3--|
B|-----------------------------------------|-----3--3----3--3--3----3--3--3----3--3--3--|
G|--2--2----2--2--2----2--2--2----2--2--2--|--2--0--0----0--0--0----0--0--0----0--0--0--|
D|--2--2----2--2--2----2--2--2----2--2--2--|--2--0--0----0--0--0----0--0--0----0--0--0--|
A|--0--0----0--0--0----0--0--0----0--0--0--|--0--2--2----2--2--2----2--2--2----2--2--2--|
E|-----------------------------------------|-----3--3----3--3--3----3--3--3----3--3--3--|



E|--3--2--2----2--2--2----2--2--2----2--2--2-----|-----------------------------------------|
B|--3--3--3----3--3--3----3--3--3----3--3--3-----|-----------------------------------------|
G|--0--2--2----2--2--2----2--2--2----2--2--2-----|--2--2----2--2--2------2p0---------------|
D|--0--0--0----0--0--0----0--0--0----0--0--0-----|--2--2----2--2--2-----------2p0----------|
A|--2--------------------------------------------|--0--0----0--0--0----------------3p0--3--|
E|--3-----------------------------------------3--|-----------------------------------------|  X2

Chorus 2
E|--3--|--2--|----------------------------------------------|
B|--3--|--3--|----------------------------------------------|
G|--0--|--2--|--2--2----2--2--2----2--2--2----2--2--2----2--|
D|--0--|--0--|--2--2----2--2--2----2--2--2----2--2--2----2--|
A|--2--|-----|--0--0----0--0--0----0--0--0----0--0--0----0--|
E|--3--|-----|----------------------------------------------|

E|--3--|--2--|----------------------------------------------|
B|--3--|--3--|----------------------------------------------|
G|--0--|--2--|--2--2----2--2--2----2--2--2----2--2--2----2--|
D|--0--|--0--|--2--2----2--2--2----2--2--2----2--2--2----2--|
A|--2--|-----|--0--0----0--0--0----0--0--0----0--0--0----0--|
E|--3--|-----|----------------------------------------------|

E|--3--|--2-----|-----------------------------------------|
B|--3--|--3-----|-----------------------------------------|
G|--0--|--2-----|--2--2----2--2--2------2p0---------------|
D|--0--|--0-----|--2--2----2--2--2-----------2p0----------|
A|--2--|--------|--0--0----0--0--0----------------3p0--3--|
E|--3--|-----3--|-----------------------------------------| 

E|--3--|--2--2--|
B|--3--|--3--3--|
G|--0--|--2--2--|
D|--0--|--0--0--|
A|--2--|--------|
E|--3--|--------|

Break (Just guitar)
E|----------------------------|-----------------------------|--------------------|
B|----------------------------|-----------------------------|--------------------|
G|--2--2----2--2--2--2--2--2--|--2--2--2--2--2--2--2--2--2--|--2p0---------------|
D|--2--2----2--2--2--2--2--2--|--2--2--2--2--2--2--2--2--2--|-------2p0----------|
A|--0--0----0--0--0--0--0--0--|--0--0--0--0--0--0--0--0--0--|------------3p0--3--|
E|----------------------------|-----------------------------|--------------------|  X2

Harmony run
E|-----------------------|-----|
B|-----------------------|-----|
G|--5--4-----------------|--2--|
D|--------7--5--4--2-----|--2--|
A|--------------------3--|--0--|
E|-----------------------|-----|  X2

Solo (Backing - Verse played twice)
E|-------|----------12--15b17--15v--|--14b16--14--|--14--15--14---------|
B|--14v--|--14--15------------------|-------------|--------------15b17--|
G|-------|--------------------------|-------------|---------------------|
D|-------|--------------------------|-------------|---------------------|
A|-------|--------------------------|-------------|---------------------|
E|-------|--------------------------|-------------|---------------------|  X2

Last Chorus (Half time)
E|--3--|--2---|-------|
B|--3--|--3---|-------|
G|--0--|--2---|--2----|
D|--0--|--0---|--2----|
A|--2--|------|--0----|
E|--3--|------|-------|  X2

E|--3--|--2-----|-------|--------------------|
B|--3--|--3-----|-------|--------------------|
G|--0--|--2-----|--2----|--2p0---------------|
D|--0--|--0-----|--2----|-------2p0----------|
A|--2--|--------|--0----|------------3p0--3--|
E|--3--|-----3--|-------|--------------------|

E|--3--|--2--2--|
B|--3--|--3--3--|
G|--0--|--2--2--|
D|--0--|--0--0--|
A|--2--|--------|
E|--3--|--------|

Outro
E|--------------------------------|     |-----------------|
B|--------------------------------|     |-----------------|
G|--7--7--7--2--2-------------2---|     |--7--7--7--2--2--|
D|--7--7--7--2--2-------------2---|     |--7--7--7--2--2--|
A|--5--5--4--0--0-------0--3--0---|     |--5--5--4--0--0--|
E|-----------------0--3-----------|  X3 |-----------------|

Outro Solo
E|--------------------------------|     |-----------------|
B|--------------------------------|     |-----------------|
G|--7--7--6--2--2--------2--5--2--|     |--7--7--6--2--2--|
D|-----------------2--5-----------|     |-----------------|
A|--------------------------------|     |-----------------|
E|--------------------------------|  X3 |-----------------|
[[],[],[],[],[],[]]

Member for

8 years 7 months
Submitted by danaorta on Mon, 2012-03-12 17:48