Sound will begin in 5 seconds

Damon Marks - Neo-Classical Progression Played In A-Minor Finishing With A-Minor Arpeggio

01234567891011121314151617181920212223
E
B
G
D
A
E
B
0 1 2 3 4 5 6 7 8 9 10 11 12 13 14 15 16 17 18 19 20 21 22 23
Song Science #1: How Pros Use 6 Chords to Write Hit Songs
(/) Slide Up  (\) Slide Down  (h) Hammer On  (p) Pull Off  (b) Bend (r) Release (v) Vibrato

Stave 1:

E|--17--15--13--12--10--12--13--12--10--9--12--10--9--7--10--9--7--5--8--7--5--4--7--5--4--5--
B|--------------------------------------------------------------------------------------------
G|--------------------------------------------------------------------------------------------
D|--------------------------------------------------------------------------------------------
A|--------------------------------------------------------------------------------------------
E|--------------------------------------------------------------------------------------------

Stave 2:

E|--4--5--7--5--7--8--7--8--10--8--10--12--10--12--13--12--13--15--14--16--17--21b
B|--------------------------------------------------------------------------------
G|--------------------------------------------------------------------------------
D|--------------------------------------------------------------------------------
A|--------------------------------------------------------------------------------
E|--------------------------------------------------------------------------------

Stave 3:

E|--17--12---------------------
B|----------13-----------------
G|--------------14-------------
D|------------------14---------
A|----------------------15--12\
E|-----------------------------

http://www.guitartabcreator.com
Guitar Tab Creator is intended to store guitar tab created through the tool. It currently does not support in-line text editing. Any text you place in here will be lost. If you need to comment on your tab, please use the "Tab Notes" section located below.