Sound will begin in 5 seconds

The Unknown Title

01234567891011121314151617181920212223
E
B
G
D
A
E
B
0 1 2 3 4 5 6 7 8 9 10 11 12 13 14 15 16 17 18 19 20 21 22 23
Song Science #1: How Pros Use 6 Chords to Write Hit Songs
(/) Slide Up  (\) Slide Down  (h) Hammer On  (p) Pull Off  (b) Bend (r) Release (v) Vibrato

Stave 1:

E|--------------------
B|--------------------
G|--------------------
D|--------------------
A|--x--x--x--x--2--2--
E|--x--x--x--x--0--0--

Stave 2:

E|--------------------
B|--------------------
G|--------------------
D|--------------------
A|--x--x--x--x--5--5--
E|--x--x--x--x--3--3--

Stave 3:

E|-------------------------------------------------------------------
B|-------------------------------------------------------------------
G|-------------------------------------------------------------------
D|-------------------------7--6--4-----------------------------------
A|----------7-----6-----4-----------7--6--4--2--2--x--x--x--x--2--2--
E|----0--0-----0-----0-----------------------0--0--x--x--x--x--0--0--

Stave 4:

E|----------------------------------------------------------------------
B|----------------------------------------------------------------------
G|----------------------------------------------------------------------
D|----------------------------------------------------------------------
A|--------7-----6-----4---------------7--9--10--5--5--x--x--x--x--5--5--
E|--0--0-----0-----0-----0--7--9--10------------3--3--x--x--x--x--3--3--

Stave 5:

E|--------------------------------------------------------------------
B|--------------------------------------------------------------------
G|----------------------------13--12--10------------------------------
D|----13------12--10--12------------------13--12--10--12--13--12--10--
A|--------------------------------------------------------------------
E|--------------------------------------------------------------------

http://www.guitartabcreator.com
Guitar Tab Creator is intended to store guitar tab created through the tool. It currently does not support in-line text editing. Any text you place in here will be lost. If you need to comment on your tab, please use the "Tab Notes" section located below.