Sound will begin in 5 seconds

Step by Step

01234567891011121314151617181920212223
E
B
G
D
A
E
B
0 1 2 3 4 5 6 7 8 9 10 11 12 13 14 15 16 17 18 19 20 21 22 23
Song Science #1: How Pros Use 6 Chords to Write Hit Songs
(/) Slide Up  (\) Slide Down  (h) Hammer On  (p) Pull Off  (b) Bend (r) Release (v) Vibrato

Stave 1:

E|--------------------------------------------------------------
B|--------------------------------------------------------------
G|--------------7--7--7--7--------------4--4--4--4--3--3--3--3--
D|--7--7--7--7--7--7--7--7--4--4--4--4--4--4--4--4--3--3--3--3--
A|--7--7--7--7--5--5--5--5--4--4--4--4--2--2--2--2--1--1--1--1--
E|--5--5--5--5--------------2--2--2--2--------------------------

Stave 2:

E|---------------------------------------------------
B|---------------------------------------------------
G|--14--------------------------------14--14--14-----
D|--14--------------------------------14--14--14-----
A|--12--------------------------------12--12--12-----
E|---------------------------------------------------

Stave 3:

E|--------------------------------------------------------
B|--------------------------------------------------------
G|--------------------------------------------------------
D|--------------------------------------------------------
A|--------4--4--5--4--------4--5--4--------4--5--5--4-----
E|--5--5--------------5--5-----------5--5--------------5--

Stave 4:

E|--------------3--3--------------------------
B|--------------4--4--5--5--------------------
G|--------6--6--5--5--4--4--7--7--6--6--9--9--
D|--7--7--7--7--------------7--7--6--6--9--9--
A|--7--7--------------2--2--5--5--4--4--7--7--
E|--5--5--------------------------------------

Stave 5:

E|----------------------------------
B|--14--14--15--15--14--14--12--14--
G|--14--14--14--14--14--14--14--14--
D|----------------------------------
A|----------------------------------
E|----------------------------------

Stave 6:

E|--------------------------------------------------
B|--------------------------------------------------
G|--------------------------------------------------
D|--------------------------------------------------
A|--------------5--5--5--5--4--4--4--4--------------
E|--2--2--2--2--------------------------5--5--5--5--

http://www.guitartabcreator.com
Guitar Tab Creator is intended to store guitar tab created through the tool. It currently does not support in-line text editing. Any text you place in here will be lost. If you need to comment on your tab, please use the "Tab Notes" section located below.