Sound will begin in 5 seconds

Battle for the sun chorus

Chords
01234567891011121314151617181920212223
E
B
G
D
A
E
B
0 1 2 3 4 5 6 7 8 9 10 11 12 13 14 15 16 17 18 19 20 21 22 23
Song Science #1: How Pros Use 6 Chords to Write Hit Songs
(/) Slide Up  (\) Slide Down  (h) Hammer On  (p) Pull Off  (b) Bend (r) Release (v) Vibrato

Stave 1:

D|-_------------------------------------------------------
A|-_------------------------------------------------------
F|-14-14-14-14-14-10--12-12-12-12-12-9---------------------
C|-_------------------------------------------------------
G|-12-12-12-12-12-8---10-10-10-10-10-7---------------------
C|-_-----------------------------------0-10-10-0-10-0-12--

Stave 2:

D|---------------------------------------------------_---------
A|---------------------------------------------------_---------
F|---------------------------------------------------_---------
C|---------------8-10------------------------10-12-8-10-8-7-8-7-
G|---------------8-10------------------------10-12-8-10-5-7-8-7-
C|-0-14-0-14-15--8-10--0-0-0-0-0--0-0-0-0-0--10-12-8-10-5-7-8-7-

http://www.guitartabcreator.com
Guitar Tab Creator is intended to store guitar tab created through the tool. It currently does not support in-line text editing. Any text you place in here will be lost. If you need to comment on your tab, please use the "Tab Notes" section located below.