Sound will begin in 5 seconds

Micro Tdh - Bésame sin sentir (Guitar Cover)

01234567891011121314151617181920212223
E
B
G
D
A
E
B
0 1 2 3 4 5 6 7 8 9 10 11 12 13 14 15 16 17 18 19 20 21 22 23
(/) Slide Up  (\) Slide Down  (h) Hammer On  (p) Pull Off  (b) Bend (r) Release (v) Vibrato

Intro

E|--19b---15h17h19--15----------|-------------------
B|----------------------17v-----|-------------------
G|------------------------------|--12/14v--12v--9v--
D|------------------------------|-------------------
A|------------------------------|-------------------
E|------------------------------|-------------------

Estrofa

E|--------------------------------------------------------------
B|-------------17------17v------------17--19--19b---17----------
G|--15/16--16------16----------15/16--------------------16v-----
D|--------------------------------------------------------------
A|--------------------------------------------------------------
E|--------------------------------------------------------------



E|-------------------------------------------------------------
B|------17-----------------------------------------------------
G|--16------16--19--16-----------------------------------------
D|----------------------19--17------17--19--21--17-------17/9--
A|------------------------------19------------------19v--------
E|-------------------------------------------------------------

http://www.guitartabcreator.com
Guitar Tab Creator is intended to store guitar tab created through the tool. It currently does not support in-line text editing. Any text you place in here will be lost. If you need to comment on your tab, please use the "Tab Notes" section located below.