Sound will begin in 5 seconds

etude "oltenita"

01234567891011121314151617181920212223
E
B
G
D
A
E
B
0 1 2 3 4 5 6 7 8 9 10 11 12 13 14 15 16 17 18 19 20 21 22 23
Song Science #1: How Pros Use 6 Chords to Write Hit Songs
(/) Slide Up  (\) Slide Down  (h) Hammer On  (p) Pull Off  (b) Bend (r) Release (v) Vibrato

Stave 1:

E|--------------------------------------------------------------------------
B|--------------------------------------------------------------------------
G|--------------------------------------------------------------------------
D|-----7--6-----------------------------------------------------------------
A|-----------8--7--5-----------7--6--7--------------------------------------
E|--5-----------------8--7--8-----------5--7--8--5--7--8--4--5--7--4--5--7--

Stave 2:

E|--------------------------------------------------------------------------
B|--------------------------------------------------------------------------
G|-----------------------------------------4--5-----2--4--------2--1--2--4--
D|-----7--6-----------------------------7--------5--------3--5--------------
A|-----------8--7--5-----------7--6--7--------------------------------------
E|--5-----------------8--7--8-----------------------------------------------

Stave 3:

E|-----------------------------------------------------------------------------------
B|-----------------------------------------------------------------------------------
G|--5--------5--------7---------7---------9----------9----------9----------9---------
D|-----7--------7--------9---------9---------10---------10---------10---------9------
A|--------7--------7--------10--------10---------10---------10---------10--------11--
E|-----------------------------------------------------------------------------------

Stave 4:

E|---------------------------------------------------------------------------------
B|---------------------------------------------------------------------------------
G|---------------------------------------------------------------------------------
D|------9--10------7--9-----5--7--6--7--9--7--9--10--7--9--10--7--9--10--7--9--10--
A|--12---------10--------8---------------------------------------------------------
E|---------------------------------------------------------------------------------

Stave 5:

E|----------------------------------------------------------------------------
B|-------------------------------------5-----------------3--5--------5--------
G|------------7--9--10--------4--5--7-----------2--4--5--------4--------4-----
D|--7--9--10------------5--7--------------3--5--------------------6--------6--
A|----------------------------------------------------------------------------
E|----------------------------------------------------------------------------

http://www.guitartabcreator.com
Guitar Tab Creator is intended to store guitar tab created through the tool. It currently does not support in-line text editing. Any text you place in here will be lost. If you need to comment on your tab, please use the "Tab Notes" section located below.