Sound will begin in 5 seconds

The Cripplesipper

01234567891011121314151617181920212223
E
B
G
D
A
E
B
0 1 2 3 4 5 6 7 8 9 10 11 12 13 14 15 16 17 18 19 20 21 22 23
Song Science #1: How Pros Use 6 Chords to Write Hit Songs
(/) Slide Up  (\) Slide Down  (h) Hammer On  (p) Pull Off  (b) Bend (r) Release (v) Vibrato

Stave 1:

G|-------------------------------------------------------------------------------------
D|-------------------------------------------------------------------------------------
A|---------0-12-13-12-----------8---15---13----------0-12-13-12-----------8-7-8-8-8-10-
D|-0-12-13------------13-0-8-10---0----0-----0-12-13------------13-0-8-10--------------

Stave 2:

G|--------------------------------------------------------------------------------------
D|--------------------------------------------------------------------------------------
A|---------0-12-13-12-----------8---13---15----------0-12-13-12-----------13-12-6-6-6-5-
D|-0-12-13------------13-0-8-10---0----0-----0-12-13------------13-0-8-10---------------

Stave 3:

G|----------------------------------------------------------------------------------------12-15-12----
D|-------------------------------------------------------------------------------12-13-15----------13-
A|---------0-12-13-12-----------8---13---15---------0-12-13-12----------12-13-15----------------------
D|-0-12-13------------13-0-8-10---0----0----0-12-13------------13-12-13-------------------------------

Stave 4:

G|---------------------------------------------------------------------------------------------------------------------
D|------------------14-12--------------------14-12-------17-14------------------------14-12----------------------------
A|---7-8---8-10-----------13-12---7-8---8-10-------13-12-------15-12---7-8---8-10-----------13-15----------------------
D|-0-----0------0-0-------------0-----0------------------------------0-----0------0-0-------------0-0-0-0-0-0-0-0-13-0-

Stave 5:

G|---------------------------------------------------------------------------------------------------12-15-12----
D|------------------14-12--------------------14-12-------17-14------------------------------12-13-15----------13-
A|---7-8---8-10-----------13-12---7-8---8-10-------13-12-------15-12---------------12-13-15----------------------
D|-0-----0------0-0-------------0-----0------------------------------0-0-0-0-0-0-0-------------------------------

Stave 6:

G|-----------------------------------------------------------------------------------------------------------
D|-------12-13-12-10-12-10-------12-13-12-10-12-10-9-10-------12-13-12-10-12-10-------12-13-12-10------------
A|------------------------------------------------------------------------------------------------10-12-10-9-
D|-10-10-------------------10-10------------------------10-10-------------------10-10------------------------

Stave 7:

G|----------------------------------------------------------------------
D|-----9-10-9-7-9-7-----9-10-9-7-9-7-7-6-----9-10-9-7-9-7-----9-7-------
A|----------------------------------------------------------------6-7-9-
D|-7-7--------------7-7------------------7-7--------------7-7-----------

Stave 8:

G|---------------------------------------------------------------------------------------------------
D|------------------------------------------------------------------10-10-10-------10-10-10-11-11-11-
A|-7-7-7-7-7-7-8-8-8-7-7-7-8-10-------------6-------6-4-8-8-8-8-8-8----------8-8-8-------------------
D|------------------------------5-5-5-5-5-5---5-5-5--------------------------------------------------

Stave 9:

G|---------------------
D|-------------------7-
A|-------6-------------
D|-7-7-7---7-7-7-7-7---

Stave 10:

G|------------------------------------------------------------------
D|------------------------------------------------------------------
A|-------8---------6-----------0----------8---------6---------------
D|-0-7-8---0-0-6-7---0-0-----0---13-0-7-8---0-0-6-7---0-0-0-1-0-0-0-

Stave 11:

G|--
D|--
A|--
D|--

http://www.guitartabcreator.com
Guitar Tab Creator is intended to store guitar tab created through the tool. It currently does not support in-line text editing. Any text you place in here will be lost. If you need to comment on your tab, please use the "Tab Notes" section located below.