Sound will begin in 5 seconds

You make me brave-amanda cook

Chords
01234567891011121314151617181920212223
E
B
G
D
A
E
B
0 1 2 3 4 5 6 7 8 9 10 11 12 13 14 15 16 17 18 19 20 21 22 23
Song Science #1: How Pros Use 6 Chords to Write Hit Songs
(/) Slide Up  (\) Slide Down  (h) Hammer On  (p) Pull Off  (b) Bend (r) Release (v) Vibrato

Stave 1:

E|----------15--------------15--------------------------18--
B|------16------18------16------18--16----------16----------
G|--15--------------15------------------15--15------15------
D|----------------------------------------------------------
A|----------------------------------------------------------
E|----------------------------------------------------------

Stave 2:

E|--_--------------------------------------------------
B|--8---8--8---8--8---8--8---8--8---8--6--6--8--9---11--
G|--_--------------------------------------------------
D|--10--8--10--6--10--8--10--8--10--8--8--6--8--10--12--
A|--_--------------------------------------------------
E|--_--------------------------------------------------

Stave 3:

E|--11--13--15--13--------------15--13----------
B|--_--------------16--16--16----------16--15--
G|--12--15--15--15--15--12--15--15--15--15--15--
D|--_------------------------------------------
A|--_------------------------------------------
E|--_------------------------------------------

Stave 4:

E|------------------------------------------
B|--------------11------11--11--11--11--11--
G|------12----------12--10--13--12--13--10--
D|--13------13----------12--13--13--13--12--
A|------------------------------------------
E|------------------------------------------

Stave 5:

E|----------15------------------18------
B|------16------18------15----------15--
G|--15--------------15------15----------
D|--------------------------------------
A|--------------------------------------
E|--------------------------------------

http://www.guitartabcreator.com
Guitar Tab Creator is intended to store guitar tab created through the tool. It currently does not support in-line text editing. Any text you place in here will be lost. If you need to comment on your tab, please use the "Tab Notes" section located below.