Sound will begin in 5 seconds

Wake-young and free

Chords
01234567891011121314151617181920212223
E
B
G
D
A
E
B
0 1 2 3 4 5 6 7 8 9 10 11 12 13 14 15 16 17 18 19 20 21 22 23
Song Science #1: How Pros Use 6 Chords to Write Hit Songs
(/) Slide Up  (\) Slide Down  (h) Hammer On  (p) Pull Off  (b) Bend (r) Release (v) Vibrato

Stave 1:

E|----------------------------------------------------------------------
B|----------------------------------------------------------------------
G|--0--0--0--0--0--0--0---0--0--0--0--0--0--0--------0---0---0---0---0---
D|--7--9--9--7--9--9--12--5--5--4--4--2--2--0--------14--14--16--16--17--
A|----------------------------------------------------------------------
E|--------------------------------------------0--0----------------------

Stave 2:

E|-------------
B|-------------
G|-------------
D|-------------
A|--3--5-----7--
E|-------7-----

Stave 3:

E|------------------------------------------------------------------
B|--15------15------15------15------15------15------13------12--13--
G|------12------12------12------12------12------12------12----------
D|------------------------------------------------------------------
A|------------------------------------------------------------------
E|------------------------------------------------------------------

Stave 4:

E|------------------------------------------------------------------
B|--------------15------------------------------15------------------
G|--12--14--16------14--16--12------12--14--16------12--16--14--12--
D|------------------------------14----------------------------------
A|------------------------------------------------------------------
E|------------------------------------------------------------------

Stave 5:

E|--_------------------------------------------------
B|--8---10--7--12-----------5--7--8------5--7--10--8--
G|--9---11--7--12-----------5--7--7--12--5--7--7---7--
D|--10--12--7--12-----------5--7--5--12--5--7--7---5--
A|--_------------------------------------------------
E|--_------7--12--0--0--0-----------10---------------

http://www.guitartabcreator.com
Guitar Tab Creator is intended to store guitar tab created through the tool. It currently does not support in-line text editing. Any text you place in here will be lost. If you need to comment on your tab, please use the "Tab Notes" section located below.