Sound will begin in 5 seconds

Man of sorrows-hillsong

Chords
01234567891011121314151617181920212223
E
B
G
D
A
E
B
0 1 2 3 4 5 6 7 8 9 10 11 12 13 14 15 16 17 18 19 20 21 22 23
Song Science #1: How Pros Use 6 Chords to Write Hit Songs
(/) Slide Up  (\) Slide Down  (h) Hammer On  (p) Pull Off  (b) Bend (r) Release (v) Vibrato

Stave 1:

E|-------------------------
B|-------------------------
G|-------------------------
D|-----7-----7-----7-----8-
A|-------------------------
E|-0-0---0-0---0-0---0-0---

Stave 2:

E|------------------------------------------------
B|------------------------------------------------
G|------------------------------------------------
D|------7-----7-----3-----7-3-7-5-5-7-7-3-7-3-5-7-
A|--------------0-0---------0---3-3-5-5-0-5-0-3---
E|--0-0---0-0---------0-0-----0-----------------0-

Stave 3:

E|-_-----------------------------------
B|-10-6-10-8-10-6-8-6-10-8-10-6-8-------
G|-10-7-10-9-10-7-9-7-10-9-10-7-9-------
D|-_---------------------------------7-
A|-_-----------------------------------
E|-_-----------------------------0-0---

Stave 4:

E|-_----------------------------------------
B|-10-11-10-13-10-11-13-11-10-13-10-11-13----
G|-10-10-10-12-10-10-12-10-10-12-10-10-12-10-
D|-12-8-----10-12-8--10-8-----10-12-8--10----
A|-_----8-----------------8--------------8--
E|-_-------------------------------------0--

Stave 5:

E|-_----------------------------------------------------------------
B|-10-6-10-8---------7---10--------------------6-6-6-6-6-6-6-6-5-5-5-
G|-10-7-10-9-------7---7----10-10-10-12-9----9-----------------------
D|-_-------------------------------------12-------------------------
A|-_----------------------------------------------------------------
E|-_------0-0-0-0---------------------------------------------------

Stave 6:

E|-_-------------
B|-10-6-10-6-8-10-
G|-10-7-10-7-9-10-
D|-_-------------
A|-_----------8--
E|-_----------0--

http://www.guitartabcreator.com
Guitar Tab Creator is intended to store guitar tab created through the tool. It currently does not support in-line text editing. Any text you place in here will be lost. If you need to comment on your tab, please use the "Tab Notes" section located below.