Sound will begin in 5 seconds

Go-Hillsong

Chords
01234567891011121314151617181920212223
E
B
G
D
A
E
B
0 1 2 3 4 5 6 7 8 9 10 11 12 13 14 15 16 17 18 19 20 21 22 23
Song Science #1: How Pros Use 6 Chords to Write Hit Songs
(/) Slide Up  (\) Slide Down  (h) Hammer On  (p) Pull Off  (b) Bend (r) Release (v) Vibrato

Stave 1:

E|--------------
B|-------12/12--
G|--------------
D|--9/9---------
A|--------------
E|--------------

Stave 2:

E|----14----------------------------
B|--------14--16----------------14--
G|----------------16----------------
D|--------------------16------------
A|----------------------------------
E|------------------------0--0------

Stave 3:

E|--------------------
B|--------------------
G|--------------------
D|--------------------
A|--2--2--2--2--2--2--
E|--------------------

Stave 4:

E|---------------------------------------------
B|----------------------------12---------------
G|-------------9--8-----------11--9--13--9--8--
D|--9--2--6--2--------9--------9----------------
A|--9--2--6--2--7--6--9------------7--11--7--6--
E|--7--0--4--0--------7--0--0-------------------

Stave 5:

E|--------------------------------------------------
B|--------------------------------------------------
G|--------------------------------------------------
D|-----------------------6-----------------4--4--4--
A|--------------------------7--7--7--7--7-----------
E|--7--7--7--7--7--4--7-----------------------------

http://www.guitartabcreator.com
Guitar Tab Creator is intended to store guitar tab created through the tool. It currently does not support in-line text editing. Any text you place in here will be lost. If you need to comment on your tab, please use the "Tab Notes" section located below.