Sound will begin in 5 seconds

Deg være ære-impuls

Chords
01234567891011121314151617181920212223
E
B
G
D
A
E
B
0 1 2 3 4 5 6 7 8 9 10 11 12 13 14 15 16 17 18 19 20 21 22 23
Song Science #1: How Pros Use 6 Chords to Write Hit Songs
(/) Slide Up  (\) Slide Down  (h) Hammer On  (p) Pull Off  (b) Bend (r) Release (v) Vibrato

Stave 1:

E|-------7---------7-11---
B|---7-----9---7----------
G|-9---8-----9---8------9-
D|------------------------
A|------------------------
E|------------------------

Stave 2:

E|--------9-11------------------
B|-9-10-9-----------------------
G|-----------------------8-9-11-
D|------------------------------
A|-----------------------6-7-9--
E|-------------0-0-0-0-0--------

Stave 3:

E|-----------------------------------11-------------------11------------------
B|-12---9---12--------12--------12------12-12--------12------12-12--------9---
G|----9---9----9-11-9----9-11-9----9----------9-11-9----9----------9-11-9---9-
D|----------------------------------------------------------------------------
A|----------------------------------------------------------------------------
E|----------------------------------------------------------------------------

Stave 4:

E|-------------------9-11-
B|-0-0-0-0----9-10-9------
G|-9-8-9-11---------------
D|------------------------
A|------------------------
E|----------0-------------

Stave 5:

E|-0--0--0-0--0--------0--0--0-------------9-11-
B|-16-17-9-10-12-------14-16-17-----9-10-9------
G|-_-------------------------------------------
D|-_-------------------------------------------
A|-_-------------------------------------------
E|-_------------0-0-0----------0-0-------------

http://www.guitartabcreator.com
Guitar Tab Creator is intended to store guitar tab created through the tool. It currently does not support in-line text editing. Any text you place in here will be lost. If you need to comment on your tab, please use the "Tab Notes" section located below.