Sound will begin in 5 seconds

Christ is enough-hillsong

Chords
01234567891011121314151617181920212223
E
B
G
D
A
E
B
0 1 2 3 4 5 6 7 8 9 10 11 12 13 14 15 16 17 18 19 20 21 22 23
Song Science #1: How Pros Use 6 Chords to Write Hit Songs
(/) Slide Up  (\) Slide Down  (h) Hammer On  (p) Pull Off  (b) Bend (r) Release (v) Vibrato

Stave 1:

E|-------------------------------------------------
B|-------------0---0-----0-------------0---0-----0-
G|---------------0-----------------------0---------
D|-9-8-6-0-----------------9-8-6-0-----------8-8---
A|---------6-6-------7-7-----------6-6-------------
E|-------------------------------------------------

Stave 2:

E|---------------------------------------------
B|-----0---0-----0---0-----0---0-----0---------
G|-------0---------0---------0-----------------
D|---------------------0-0-------8-8---9-8-6-0-
A|-6-6-------7-7-------------------------------
E|---------------------------------------------

Stave 3:

E|-----------
B|---7-----7-
G|-0-----0---
D|-----8-----
A|-----------
E|-----------

Stave 4:

E|-11-12-11-9--11-7-12-11-9--11-14-14-14-11-14-14----
B|-12-12-12-11-12-9-12-12-11-12-12-11-12-12-12-11-12-
G|-_------------------------------------------------
D|-_------------------------------------------------
A|-_------------------------------------------------
E|-_------------------------------------------------

Stave 5:

E|-11-12-14--------11-12-------12-11----11-12----------------12----
B|----------12-----------14-12-------14-------14-12-12-11-12-12-12-
G|--------------------------------------------------------11-11-11-
D|-----------------------------------------------------------------
A|-----------------------------------------------------------------
E|-------------0-0-------------------------------------------------

Stave 6:

E|--11-12-9--11-12-11-9--11-12-14-14-12-9-----
B|--12-12-11-12-12-12-11-12-12-12-12-12-11-12-
G|-----------------------------------------11-
D|--------------------------------------------
A|--------------------------------------------
E|--------------------------------------------

http://www.guitartabcreator.com
Guitar Tab Creator is intended to store guitar tab created through the tool. It currently does not support in-line text editing. Any text you place in here will be lost. If you need to comment on your tab, please use the "Tab Notes" section located below.