Sound will begin in 5 seconds

Alive-young and free

Chords
01234567891011121314151617181920212223
E
B
G
D
A
E
B
0 1 2 3 4 5 6 7 8 9 10 11 12 13 14 15 16 17 18 19 20 21 22 23
Song Science #1: How Pros Use 6 Chords to Write Hit Songs
(/) Slide Up  (\) Slide Down  (h) Hammer On  (p) Pull Off  (b) Bend (r) Release (v) Vibrato

Stave 1:

E|----------------------
B|----------------------
G|----------------------
D|----------------------
A|--7--2--4--4--7--6----
E|----------------------

Stave 2:

E|-----------------------------------------
B|----------------------------------10--9--
G|----9-------------9--8--8--9--11---------
D|-------9--11--11-------------------------
A|-----------------------------------------
E|-----------------------------------------

Stave 3:

E|--12----11------
B|--x-----12------
G|--9-----9-------
D|--_-----9---
A|--_---------
E|--_---------

Stave 4:

E|-------------------------------------------
B|---------14-----------------------10--9----
G|--6--13------6--13--11--8--9--11-----------
D|-------------------------------------------
A|-------------------------------------------
E|-------------------------------------------

Stave 5:

E|--_----------------------------
B|--12--9--12--12--12--10--9--12--
G|--9---9--11--9---11--9---9--11--
D|--9---9--9---9---9---9---9--9---
A|--_----------------------------
E|--_----------------------------

http://www.guitartabcreator.com
Guitar Tab Creator is intended to store guitar tab created through the tool. It currently does not support in-line text editing. Any text you place in here will be lost. If you need to comment on your tab, please use the "Tab Notes" section located below.