Riff

Chords

01234567891011121314151617181920212223
E
B
G
D
A
E
B
0 1 2 3 4 5 6 7 8 9 10 11 12 13 14 15 16 17 18 19 20 21 22 23
(/) Slide Up  (\) Slide Down  (h) Hammer On  (p) Pull Off  (b) Bend (r) Release (v) Vibrato

E|---------------------------------|- 
B|---------------------------------|-
G|---------------------------------|-
D|-3h5-0-9-3h5-0-7-------------9\7-|-
A|-----------------3h5-0-9-7/9-----|-
D|---------------------------------|-


E|---------------------------------------------------------|-
B|---------------------------------------------------------|-
G|---------------------------------------------------------|-
D|-3h5-0-9-9-9-9-9-9-9-9-3h5-0-7-7-7-7-7-7-7-7-9p7-0-12-12-|-
A|-3h5-0-9-9-9-9-9-9-9-9-3h5-0-7-7-7-7-7-7-7-7-9p7-0-12-12-|-
D|-3h5-0-9-9-9-9-9-9-9-9-3h5-0-7-7-7-7-7-7-7-7-9p7-0-12-12-|-
							http://www.guitartabcreator.com
[[],[],[],[],[],[]]

Member for

8 years 8 months
Submitted by CloudSylver on Tue, 2011-09-13 22:43