Sound will begin in 5 seconds

Licks (A Minor Pentatonic)

01234567891011121314151617181920212223
E
B
G
D
A
E
B
0 1 2 3 4 5 6 7 8 9 10 11 12 13 14 15 16 17 18 19 20 21 22 23
Song Science #1: How Pros Use 6 Chords to Write Hit Songs
(/) Slide Up  (\) Slide Down  (h) Hammer On  (p) Pull Off  (b) Bend (r) Release (v) Vibrato

Stave 1:

E|----------------
B|----------------
G|----------------
D|----------------
A|--------3--5/7--
E|--3--5----------

Stave 2:

E|----------------
B|----------------
G|--------5--7/9--
D|--5--7----------
A|----------------
E|----------------

Stave 3:

E|--------------------
B|-----------5--------
G|--7--5--7-----5-----
D|-----------------7--
A|--------------------
E|--------------------

Stave 4:

E|---------
B|---------
G|--7b7b5--
D|---------
A|---------
E|---------

Stave 5:

E|--8b8b5--
B|---------
G|---------
D|---------
A|---------
E|---------

Stave 6:

E|------------------
B|----------5-------
G|-------5-----7b5--
D|--5h7-------------
A|------------------
E|------------------

Stave 7:

E|---------------
B|--4/5--4/5-----
G|------------5--
D|---------------
A|---------------
E|---------------

Stave 8:

E|---------------------------
B|---------------------------
G|--------5--7b7--5-----5--7b
D|--5--7-------------7-------
A|---------------------------
E|---------------------------

Stave 9:

E|--------------------------------------------
B|--8b10--10--10--8b10--10--10--8b10--10--10--
G|--------------------------------------------
D|--------------------------------------------
A|--------------------------------------------
E|--------------------------------------------

Stave 10:

E|-----------------------
B|-----------------------
G|--7--8--7--5--7--5-----
D|--------------------7--
A|-----------------------
E|-----------------------

Stave 11:

E|--8--10--10h11p10p8--10--8------
B|----------------------------10--
G|--------------------------------
D|--------------------------------
A|--------------------------------
E|--------------------------------

Stave 12:

E|--4/5---------------------------------
B|-------8--5---------------------------
G|-------------7--5---------------------
D|-------------------7--5---------------
A|-------------------------7--5---------
E|-------------------------------8--5v--

Stave 13:

E|-----------------------------------------------------
B|--3/4-----------------------4--5--4------------------
G|-------7--5-----------5--7-----------7--5------------
D|-------------7--5--7-----------------------7--5--7v--
A|-----------------------------------------------------
E|-----------------------------------------------------

Stave 14:

E|--5-------------------------
B|-----8b10--5----------------
G|--------------7b9--7p5------
D|------------------------7v--
A|----------------------------
E|----------------------------

Stave 15:

E|--------------------------------------------------------
B|-----------------------------------5--------------------
G|------------------------5--7--7b9-----7b9--7--5---------
D|------------------5--7---------------------------7--7v--
A|--------3--5--7v----------------------------------------
E|--3--5--------------------------------------------------

Stave 16:

E|--10b12--10--8-----------
B|----------------10--10v--
G|-------------------------
D|-------------------------
A|-------------------------
E|-------------------------

http://www.guitartabcreator.com
Guitar Tab Creator is intended to store guitar tab created through the tool. It currently does not support in-line text editing. Any text you place in here will be lost. If you need to comment on your tab, please use the "Tab Notes" section located below.