Sound will begin in 5 seconds

thanks heaps

01234567891011121314151617181920212223
E
B
G
D
A
E
B
0 1 2 3 4 5 6 7 8 9 10 11 12 13 14 15 16 17 18 19 20 21 22 23
Song Science #1: How Pros Use 6 Chords to Write Hit Songs
(/) Slide Up  (\) Slide Down  (h) Hammer On  (p) Pull Off  (b) Bend (r) Release (v) Vibrato

Stave 1:

E|-------------------------x--
B|-------------------------x--
G|--------5-------------5--x--
D|--7--3--5--5----7--3--5--x--
A|--7--3--3--5----7--3--3--x--
E|--5--1-----3----5--1-----x--

Stave 2:

E|------------
B|------------
G|---------5--
D|--5\6-3--5--
A|--5-6-3--3--
E|--3-4\1-----

Stave 3:

E|--------------
B|--------------
G|--------------
D|--5\6-5/8--6--
A|--5-6-5-8--6--
E|--3-4\3-6--4--

Stave 4:

E|--------------------------------------------------------
B|--15--13--12----15--13--12----15--13--12----15--13------
G|----------------------------------------------------12--
D|--------------------------------------------------------
A|--------------------------------------------------------
E|--------------------------------------------------------

Stave 5:

E|----------------------13--15--16--17--
B|----------13--15--16------------------
G|--13--15------------------------------
D|--------------------------------------
A|--------------------------------------
E|--------------------------------------

Stave 6:

E|--------------------------12--14--15----15--16--15--16--13-------------
B|--------------12--14--15------------------------------------13---------
G|--11--12--14----------------------------------------------------12-----
D|-----------------------------------------------------------------------
A|-----------------------------------------------------------------------
E|-----------------------------------------------------------------------

Stave 7:

E|--------------------------
B|--------------------------
G|-----------------5--------
D|--5--6--5--6--3--5--5--x--
A|--5--6--5--6--3--3--5--x--
E|--3--4--3--4--1-----3--x--

http://www.guitartabcreator.com
Guitar Tab Creator is intended to store guitar tab created through the tool. It currently does not support in-line text editing. Any text you place in here will be lost. If you need to comment on your tab, please use the "Tab Notes" section located below.