Sound will begin in 5 seconds

euclid

01234567891011121314151617181920212223
E
B
G
D
A
E
B
0 1 2 3 4 5 6 7 8 9 10 11 12 13 14 15 16 17 18 19 20 21 22 23
Song Science #1: How Pros Use 6 Chords to Write Hit Songs
(/) Slide Up  (\) Slide Down  (h) Hammer On  (p) Pull Off  (b) Bend (r) Release (v) Vibrato

Stave 1:

Eb|-------------------------------------------------------
Bb|-------------------------------------------------------
Gb|----------------------------------------------------1--
Db|--6--6--6--6--6--6--6------6--6--6--6--6--6------6--2--
Ab|--4--4--4--4--4--6--6------4--4--4--4--4--6--6v--6--2--
Eb|-------------------------------------------------------

Stave 2:

Eb|-----------------------------------
Bb|-----------------------------------
Gb|--------------------6--------4-----
Db|--------4-----4--------6--------4--
Ab|-----------------0--------0--------
Eb|--4--4-----4-----------------------

Stave 3:

Eb|----
Bb|--5--
Gb|--6--
Db|--6--
Ab|----
Eb|----

Stave 4:

Eb|----------------------------------------------------------------------------------
Bb|----------------------------------------------------------------------------------
Gb|----------------------------------------------------------------------------------
Db|----6--6--4--6/9--6--6--4--6/9--9--6--11--11--9--11/14--11--11--9--11/14--14--11--
Ab|----------------------------------------------------------------------------------
Eb|----------------------------------------------------------------------------------

Stave 5:

Eb|-----------
Bb|-----------
Gb|-----------
Db|--4--2--6--
Ab|-----------
Eb|-----------

Stave 6:

Eb|-------------------------------------------------
Bb|-------------------------------------------------
Gb|---------11--13--14--13--11----------------------
Db|-----11----------------------14--13--14--13--11--
Ab|--0----------------------------------------------
Eb|-------------------------------------------------

Stave 7:

Eb|---------------------
Bb|---------------------
Gb|---------13--14--13--
Db|-----11--------------
Ab|--0------------------
Eb|---------------------

http://www.guitartabcreator.com
Guitar Tab Creator is intended to store guitar tab created through the tool. It currently does not support in-line text editing. Any text you place in here will be lost. If you need to comment on your tab, please use the "Tab Notes" section located below.