Sound will begin in 5 seconds

untitled

01234567891011121314151617181920212223
E
B
G
D
A
E
B
0 1 2 3 4 5 6 7 8 9 10 11 12 13 14 15 16 17 18 19 20 21 22 23
Song Science #1: How Pros Use 6 Chords to Write Hit Songs
(/) Slide Up  (\) Slide Down  (h) Hammer On  (p) Pull Off  (b) Bend (r) Release (v) Vibrato

Stave 1:

G|-------------------------------------------------------------------------------------
D|-------------------------------------------------------------------------------------
A|-------------------------------------------------------------------------------------
E|--7--6--4--6----6----6--7--6--4--6----6----6--7--6--4--6----6----6--7--6--4--6----6--

Stave 2:

G|------
D|------
A|------
E|--6\//

Stave 3:

G|---------------------------------------------------------------------------------------------------------------------------------
D|---------------------------------------------------------------------------------------------------------------------------------
A|---------------------------------------------------------------------------------------------------------------------------------
E|--7--6--4--6----6----6--7--6--4--6----6----6--7--6--4--6----6----6--7--6--4--6----6----6--7--6--4--6----6----6--7--6--4--6----6--

Stave 4:

G|------------
D|------------
A|--6--4/8\6--
E|------------

Stave 5:

G|------
D|------
A|--9/--
E|------

Stave 6:

G|---------------------------
D|---------------------------
A|--6--4/8\6----9--8/11--13--
E|---------------------------

Stave 7:

G|-----------------
D|-----------------
A|-----------------
E|--7--6--4--2--6--

Stave 8:

G|--------------------------------------------------
D|--------------------------------------------------
A|--------------------------------------------------
E|--7--6--4--6--7--6--4--6--7--6--4--6--7--6--4--6--

Stave 9:

G|--------------------------------------------------------------------------------------
D|--------------------------------------------------------------------------------------
A|--------------------------------------------------------------------------------------
E|--6--6--6--6--6--6--6--6--7--6--4--6--6--6--6--6--7--6--4--6--6--6--6--6--7--6--4--6--

Stave 10:

G|--------------------------------------------------
D|--------------------------------------------------
A|--------------------------6--6--6--6--6--6--6--6--
E|--2--2--2--2--2--2--2--2--------------------------

http://www.guitartabcreator.com
Guitar Tab Creator is intended to store guitar tab created through the tool. It currently does not support in-line text editing. Any text you place in here will be lost. If you need to comment on your tab, please use the "Tab Notes" section located below.