Sound will begin in 5 seconds

Sweet Child O Mine Solo Part 1 (melodic)

01234567891011121314151617181920212223
E
B
G
D
A
E
B
0 1 2 3 4 5 6 7 8 9 10 11 12 13 14 15 16 17 18 19 20 21 22 23
Song Science #1: How Pros Use 6 Chords to Write Hit Songs
(/) Slide Up  (\) Slide Down  (h) Hammer On  (p) Pull Off  (b) Bend (r) Release (v) Vibrato

Stave 1:

E|--17b19--15--14h15p14\12--15--14h15p14p12\11--12--14------------------------------------------------
B|------------------------------------------------------15b17--12-------------------------------------
G|-----------------------------------------------------------------14b16--12--11--12------11--12--14--
D|------------------------------------------------------------------------------------14--------------
A|----------------------------------------------------------------------------------------------------
E|----------------------------------------------------------------------------------------------------

Stave 2:

E|-----------------------------------------------------15b17r15----------------------------------
B|--13--12h13p12------13b15--13--12--12--12b13r12------------------------------------------------
G|----------------14-------------------------------14------------11b13r11--9--9--11b13r11--9--9--
D|-----------------------------------------------------------------------------------------------
A|-----------------------------------------------------------------------------------------------
E|-----------------------------------------------------------------------------------------------

Stave 3:

E|---------------------------------------------------------------------------
B|---------------------------------------------------------------------------
G|--8b9r8--11--11b12r11--9--------------7/9--11b12r11--9--8b9r8--11--9b11r9--
D|--------------------------9b10r9--10---------------------------------------
A|---------------------------------------------------------------------------
E|---------------------------------------------------------------------------

http://www.guitartabcreator.com
Guitar Tab Creator is intended to store guitar tab created through the tool. It currently does not support in-line text editing. Any text you place in here will be lost. If you need to comment on your tab, please use the "Tab Notes" section located below.