Untitled

Chords
01234567891011121314151617181920212223
E
B
G
D
A
E
B
0 1 2 3 4 5 6 7 8 9 10 11 12 13 14 15 16 17 18 19 20 21 22 23
(/) Slide Up  (\) Slide Down  (h) Hammer On  (p) Pull Off  (b) Bend (r) Release (v) Vibrato
(*) Palm Mute

       ****      ** **         ****     
D|-0-0-0000-00---00-00-00--0-0-0000-00-00-5-5-00-2-2-
A|----------------------------------------5-5----2-2-
D|----------------------------------------5-5----2-2-  X2
G|----------------------------------------7-7----4-4-
B|---------------------------------------------------
E|---------------------------------------------------

       ****      ** **
D|-0-0-0000-4h5--00-00-5h4
A|----------4h5--------5h4
D|----------4h5--------5h4
G|------------------------
B|------------------------
E|------------------------



D|-
A|-
D|-
G|-
B|-
E|-



D|-
A|-
D|-
G|-
B|-
E|-
[[],[],[],[],[],[]]

Member for

8 years 8 months
Submitted by Chaston on Tue, 2011-09-20 21:06