Sound will begin in 5 seconds

You Don't Care at All

01234567891011121314151617181920212223
E
B
G
D
A
E
B
0 1 2 3 4 5 6 7 8 9 10 11 12 13 14 15 16 17 18 19 20 21 22 23
Song Science #1: How Pros Use 6 Chords to Write Hit Songs
(/) Slide Up  (\) Slide Down  (h) Hammer On  (p) Pull Off  (b) Bend (r) Release (v) Vibrato

Stave 1:

E|-------------------------------
B|-------------------------------
G|-------------------------------
D|-------------------------------
A|--3----6-------1--3----6-------
E|----------1---------------1----

Stave 2:

E|------------------------------------------------------
B|------------------------------------------------------
G|-------------------0--------10--10--8--8--7--7--------
D|-------------1--3-----6--8----------------------8/10--
A|--3--3--1h3-------------------------------------------
E|------------------------------------------------------

Stave 3:

E|----------------------------------------------
B|----------------------------------------------
G|-------------------0--------10--10--8---------
D|-------------1--3-----6--8-------------10-----
A|--3--3--1h3--------------------------------8--
E|----------------------------------------------

Stave 4:

E|----------------------------------------------------
B|----------------------------------------------------
G|-------------------0--------------------------------
D|-------------1--3-----6--8--------------0-----------
A|--3--3--1h3-----------------8--8--6--6-----3--------
E|----------------------------------------------6--4--

Stave 5:

E|-------------------------------------------------------------
B|-------------------------------------------------------------
G|-------------------------------------------5----------10--8--
D|---------------------------3/4--3----3--6--------------------
A|----------1--3--3/5--3--1---------------------8----8---------
E|--3----3-----------------------------------------------------

Stave 6:

E|------------------------------------------------------------------------------------------------
B|------------------------------------------------------------------------------------------------
G|-----------------------------------10-----------------------------------------------------------
D|---------------------------3/4--3------10--6----------------------------------------------------
A|----------1--3--3/5--3--1-----------------------6--6--6-------------------3--3--3------3--3--3--
E|--3----3-----------------------------------------------------6--6--6----------------------------

http://www.guitartabcreator.com
Guitar Tab Creator is intended to store guitar tab created through the tool. It currently does not support in-line text editing. Any text you place in here will be lost. If you need to comment on your tab, please use the "Tab Notes" section located below.