Sound will begin in 5 seconds

"El Mentado" Ariel Camacho

Chords
01234567891011121314151617181920212223
E
B
G
D
A
E
B
0 1 2 3 4 5 6 7 8 9 10 11 12 13 14 15 16 17 18 19 20 21 22 23
Song Science #1: How Pros Use 6 Chords to Write Hit Songs
(/) Slide Up  (\) Slide Down  (h) Hammer On  (p) Pull Off  (b) Bend (r) Release (v) Vibrato

Capo Fret 2

Stave 1:

E|--7--7--7--7--5--4--9---7--
B|--9--9--9--9--7--5--10--9--
G|---------------------------
D|---------------------------
A|---------------------------
E|---------------------------

Stave 2:

E|--7--7--7--7--5--4--0--0--0-----0-----0-----
B|--9--9--9--9--7--5--4--4--4--4-----4-----4--
G|--------------------------------------------
D|--------------------------------------------
A|--------------------------------------------
E|--------------------------------------------

Stave 3:

E|--11--11--11--11--9---7--12--11--
B|--12--12--12--12--10--9--14--12--
G|---------------------------------
D|---------------------------------
A|---------------------------------
E|---------------------------------

Stave 4:

E|--11--11--11------9-----7-----5-----------------------------
B|--12--12--12--10-----9-----7-----5--5--4--------------------
G|------------------------------------------6--4--0-----------
D|---------------------------------------------------6--4--0--
A|------------------------------------------------------------
E|------------------------------------------------------------

Stave 5:

E|--------------------------------------------------------------------
B|--------------------------------------------------------------------
G|--4--6--8--9--9--8--6--4--6--4--0-----------------------------------
D|-----------------------------------6--4--0--6--6--6--0--6--6--6--0--
A|--------------------------------------------------------------------
E|--------------------------------------------------------------------

Stave 6:

E|--------------------------------------------------------------
B|--------------------------------------------------------------
G|-----6-----------------6-----------------6-----6-----6--------
D|--9-----9--7--6--7--9-----9--7--6--7--9-----9-----9-----9-----
A|-----------------------------------------------------------7--
E|--------------------------------------------------------------

http://www.guitartabcreator.com
Guitar Tab Creator is intended to store guitar tab created through the tool. It currently does not support in-line text editing. Any text you place in here will be lost. If you need to comment on your tab, please use the "Tab Notes" section located below.