Sound will begin in 5 seconds

Statesboro Blues - D

01234567891011121314151617181920212223
E
B
G
D
A
E
B
0 1 2 3 4 5 6 7 8 9 10 11 12 13 14 15 16 17 18 19 20 21 22 23
Song Science #1: How Pros Use 6 Chords to Write Hit Songs
(/) Slide Up  (\) Slide Down  (h) Hammer On  (p) Pull Off  (b) Bend (r) Release (v) Vibrato

Stave 1:

E|--3/4--3/4-----------|---------12\10------17/19--15/16--12\10------10/12v--|--2/4--4/7--3/4--4\3-----
B|------------5\3------|--10/12---------12-----------------------12----------|----------------------5--
G|-----------------3v--|-----------------------------------------------------|-------------------------
D|---------------------|-----------------------------------------------------|-------------------------
A|---------------------|-----------------------------------------------------|-------------------------
E|---------------------|-----------------------------------------------------|-------------------------

Stave 2:

E|---------------------------------------|--12\10-------------------------------|--12v--|--
B|--10/12--12\10------12\10------10--12--|---------12--12\10--------------------|-------|--
G|----------------12---------12----------|--------------------11\10-------------|-------|--
D|---------------------------------------|--------------------------------------|-------|--
A|---------------------------------------|---------------------------12--11/12--|-------|--
E|---------------------------------------|--------------------------------------|-------|--

Stave 3:

E|--------------------|--------------------------------|--|------------------------------------|--12v--
B|--12\11-------------|---------------------12---------|--|------------------------------------|-------
G|---------11/12------|-------------------------11/12--|--|--11/12--12\10----------------------|-------
D|----------------12--|------12--12\10-----------------|--|----------------12------------------|-------
A|--------------------|--12-------------12-------------|--|--------------------12\10--8/9------|-------
E|--------------------|--------------------------------|--|--------------------------------12--|-------

Stave 4:

E|------------------|--|--15--12--10--------------------|-------------
B|------15------15--|--|--------------12--12\10---------|-------------
G|--15------15------|--|-------------------------11/12--|--12\10------
D|------------------|--|--------------------------------|---------12--
A|------------------|--|--------------------------------|-------------
E|------------------|--|--------------------------------|-------------

Stave 5:

E|------10--12--17/19--16/17--15/16--10/12-----------------------|----------------------------------
B|--12--------------------------------------10/12----------------|------15------15------15------15--
G|-------------------------------------------------11/12---------|--15------15------15------15------
D|--------------------------------------------------------11/12--|----------------------------------
A|---------------------------------------------------------------|----------------------------------
E|---------------------------------------------------------------|----------------------------------

Stave 6:

E|-------------|--------------------------------|--|---------
B|-------------|--3--5--5--5\3-----4/5--5v--5v--|--|---------
G|--11/12------|----------------5---------------|--|--11\10--
D|---------12--|--------------------------------|--|---------
A|-------------|--------------------------------|--|---------
E|-------------|--------------------------------|--|---------

http://www.guitartabcreator.com
Guitar Tab Creator is intended to store guitar tab created through the tool. It currently does not support in-line text editing. Any text you place in here will be lost. If you need to comment on your tab, please use the "Tab Notes" section located below.