Sound will begin in 5 seconds

Look At Him Go BASS. Stave 1 (Intro/Outro/Post Chorus). Stave 2 (Verse 1 Intro). Stave 3 (Verse 1/2/Chorus/Bridge) Stave 4(Prechorus/Post Bridge)

01234567891011121314151617181920212223
E
B
G
D
A
E
B
0 1 2 3 4 5 6 7 8 9 10 11 12 13 14 15 16 17 18 19 20 21 22 23
Song Science #1: How Pros Use 6 Chords to Write Hit Songs
(/) Slide Up  (\) Slide Down  (h) Hammer On  (p) Pull Off  (b) Bend (r) Release (v) Vibrato

Stave 1:

G|---------------------------------------------
D|---------------------------------------------
A|-4-6-4-6-4-6-6-4-6-6-4-6-4-6-4-6-6-4-6-----6-
E|---------------------------------------6-8---

Stave 2:

G|---------------------------------------------------------------------------------------------
D|---------------------------------------------------------------------------------------------
A|-6-6-4-4---------6-6-4-4---------6-6-4-4-------------------------------------------8-8-8-8-8-
E|---------4-4-4-4---------4-4-4-4---------4-4-4-4-4-5-6-6-6-6-6-5-4-4-5-6-6-6-6-6-6-----------

Stave 3:

G|---------------------------------------------------------
D|---------------------------------------------------------
A|-6-6-4-4-------6-6-4-4-------6-6-4-4-------6-6-4-4-------
E|---------4-4-4---------4-4-4---------4-4-4---------4-4-4-

Stave 4:

G|---------------------------------------------------------------------------------------------------
D|---------------------------------------------------------------------------------------------------
A|-6-6-6-6-6-6-6-5-4-4-4-----------6-6-6-6-6-6-6-5-4-4-4---------------------------------------8-8-8-
E|-----------------------4-4-4-4-4-----------------------4-4-4-4-5-6-6-6-6-6-5-4-4-5-6-6-6-6-6-------

Stave 5:

G|-
D|-
A|-
E|-

http://www.guitartabcreator.com
Guitar Tab Creator is intended to store guitar tab created through the tool. It currently does not support in-line text editing. Any text you place in here will be lost. If you need to comment on your tab, please use the "Tab Notes" section located below.