Sound will begin in 5 seconds

Glenelg STAVE 1; Riff (Verse / Chorus) Stave 2/3= Pre Surf Breakdown, Stave 4/5 = Surf Breakdown

01234567891011121314151617181920212223
E
B
G
D
A
E
B
0 1 2 3 4 5 6 7 8 9 10 11 12 13 14 15 16 17 18 19 20 21 22 23
Song Science #1: How Pros Use 6 Chords to Write Hit Songs
(/) Slide Up  (\) Slide Down  (h) Hammer On  (p) Pull Off  (b) Bend (r) Release (v) Vibrato

Stave 1:

G|-----------------------------------------11-
D|--------------------------------------------
A|------------9-9r9-9-10-11r11-11-10-9-9-9----
E|-9r9-9-9-12---------------------------------

Stave 2:

G|-------------------------------------------------------------------------
D|-------------------------------------------------------------------------
A|---------------9-9-9-9-9-9-9-10-11-11-11-11-11-11-11-11-10-9-9-9-9-9-9-9-
E|-9-9-9-9-9-9-9-----------------------------------------------------------

Stave 3:

G|--------------------------------------------------------------------------------
D|--------------------------------------------------------------------------------
A|-11-11-11-11-11-11-11-10-9-9-9-9-9-9-9-10-11-11-11-11-11-11-11-10-9-------------
E|--------------------------------------------------------------------9-12-9-12-9-

Stave 4:

G|---------------------------------------------------------------------
D|---------------------------------------------------------------------
A|---------------------------------------------------------------------
E|-9-9-9-9-12-12-12-12-7-7-7-7-4-5-5-5-9-9-9-9-12-12-12-12-7-7-7-7-9-9-

Stave 5:

G|-------------------------------------------------------------------------------------------
D|-------------------------------------------------------------------------------------------
A|-------------------------------------------------------------------------------------------
E|-9-9-9-9-12-12-12-12-7-7-7-7-4-5-5-5-9-9-9-9-12-12-12-12-5-5-5-5-5-5-5-5-7-7-7-7-7-7-7-7-9-

http://www.guitartabcreator.com
Guitar Tab Creator is intended to store guitar tab created through the tool. It currently does not support in-line text editing. Any text you place in here will be lost. If you need to comment on your tab, please use the "Tab Notes" section located below.