Sound will begin in 5 seconds

your love never fails in G

Chords
01234567891011121314151617181920212223
E
B
G
D
A
E
B
0 1 2 3 4 5 6 7 8 9 10 11 12 13 14 15 16 17 18 19 20 21 22 23
Song Science #1: How Pros Use 6 Chords to Write Hit Songs
(/) Slide Up  (\) Slide Down  (h) Hammer On  (p) Pull Off  (b) Bend (r) Release (v) Vibrato

Stave 1:

E|-----------------------------------------------------
B|-------------------3--5-----3------------3--5-----3--
G|--4-------------4--------2------------4--------2-----
D|-----5--7----5-----------------5---------------------
A|-----------------------------------------------------
E|-----------------------------------------------------

Stave 2:

E|----------------------------------------------------------------
B|----------------------------------------------------------------
G|----------------------------------------------------------------
D|--------5-------------5----------------5--------5---------------
A|--3--3-----3--3/7--7-----7--7\5--5--5-----5--5-----5------x--2--
E|----------------------------------------------------------------

Stave 3:

E|------------------------------
B|------------------------------
G|--4------------------4--------
D|-----5--7---------------5--7--
A|------------------------------
E|------------------------------

Stave 4:

E|-------------
B|-------------
G|--5--4--7--5--
D|--5--5--7--7--
A|--3--5--5--7--
E|----3-----5--

Stave 5:

E|-------------------------
B|-------------------------
G|-------------------------
D|-------5-------5-------5\
A|----3-------7-------5----
E|-------------------------

Stave 6:

E|--------------------------------2---------------------------
B|-----------------------------------3-----3------------------
G|--4-------------7-----7---------------2------------4--------
D|-----5--7----5-----5-----5------------------5---------5--7--
A|------------------------------------------------------------
E|------------------------------------------------------------

Stave 7:

E|--------------------------------------
B|-----8-----8-----7-----8-----8-----7--
G|--5-----9-----7-----5-----9-----7-----
D|--------------------------------------
A|--------------------------------------
E|--------------------------------------

Stave 8:

E|--------7-----------7-----------5-----------5--
B|--8--8-----8--8--8-----8--8--8-----8--8--8-----
G|-----------------------------------------------
D|-----------------------------------------------
A|-----------------------------------------------
E|-----------------------------------------------

http://www.guitartabcreator.com
Guitar Tab Creator is intended to store guitar tab created through the tool. It currently does not support in-line text editing. Any text you place in here will be lost. If you need to comment on your tab, please use the "Tab Notes" section located below.