Sound will begin in 5 seconds

Shut up and Dance. Key of A

Chords
01234567891011121314151617181920212223
E
B
G
D
A
E
B
0 1 2 3 4 5 6 7 8 9 10 11 12 13 14 15 16 17 18 19 20 21 22 23
Song Science #1: How Pros Use 6 Chords to Write Hit Songs
(/) Slide Up  (\) Slide Down  (h) Hammer On  (p) Pull Off  (b) Bend (r) Release (v) Vibrato

Stave 1:

E|--_---------------------------------------------------------------------
B|--_-----10------------10-------------------10-----------10--------------
G|--_--9-------------9----------9---------9------------9---------9--x--2--
D|--11------------12---------12--------11------------9---------9-----------
A|--_---------------------------------------------------------------------
E|--_---------------------------------------------------------------------

Stave 2:

E|--x--
B|--x--
G|--x--
D|--7--
A|--x--
E|--x--

Stave 3:

E|--5--5--2--0-----5--5--7--
B|--5--7--2--0-----5--7--9--
G|--6--7--2--1-----6--7--9--
D|--7--7--4--2-----7--7--9--
A|--7--5--4--2-----7--5--7--
E|--5--x--2--0-----5--x--x--

Stave 4:

E|--5--5--2--0-----5--5--9---7--
B|--5--7--2--0-----5--7--10--9--
G|--6--7--2--1-----6--7--11--9--
D|--7--7--4--2-----7--7--11--9--
A|--7--5--4--2-----7--5--9---7--
E|--5--x--2--0-----5--x--x---x--

Stave 5:

E|--x-----x---
B|--x-----x---
G|--x-----x---
D|--7-----9b
A|--x-----x---
E|--x-----x---

Stave 6:

E|----
B|----
G|----
D|----
A|----
E|----

http://www.guitartabcreator.com
Guitar Tab Creator is intended to store guitar tab created through the tool. It currently does not support in-line text editing. Any text you place in here will be lost. If you need to comment on your tab, please use the "Tab Notes" section located below.