Sound will begin in 5 seconds

Radioactive Guitar

Chords
01234567891011121314151617181920212223
E
B
G
D
A
E
B
0 1 2 3 4 5 6 7 8 9 10 11 12 13 14 15 16 17 18 19 20 21 22 23
Song Science #1: How Pros Use 6 Chords to Write Hit Songs
(/) Slide Up  (\) Slide Down  (h) Hammer On  (p) Pull Off  (b) Bend (r) Release (v) Vibrato

Stave 1:

E|----3-----3-----3-----3-----3-----3-----3-----3-----2-----2-----2-----2-----0-----0-----0-----0--
B|--5-----5-----5-----5-----3-----3-----3-----3-----3-----3-----3-----3-----2-----2-----2-----2-----
G|-------------------------------------------------------------------------------------------------
D|-------------------------------------------------------------------------------------------------
A|-------------------------------------------------------------------------------------------------
E|-------------------------------------------------------------------------------------------------

Stave 2:

E|--x--x--x--x--x--x--x---x---x--x--x--x--x--x--x--x--x--x--x--x--x--x--x--x--
B|--x--x--x--x--x--x--x---x---x--x--x--x--x--x--x--x--x--x--x--x--x--x--x--x--
G|--9--9--x--x--x--x--12--12--x--x--x--x--7--7--x--x--x--x--x--x--x--x--x--x--
D|--9--9--x--x--x--x--12--12--x--x--x--x--7--7--x--x--x--x--7--7--x--x--7--7--
A|--7--7--x--x--x--x--10--10--x--x--x--x--5--5--x--x--x--x--7--7--x--x--7--7--
E|--x--x--x--x--x--x--x---x---x--x--x--x--x--x--x--x--x--x--5--5--x--x--5--5--

Stave 3:

E|--x--x--x--x--x--x--x---x---x--x--x--x--x--x--x--x--x--x--x--
B|--x--x--x--x--x--x--x---x---x--x--x--x--x--x--x--x--x--x--x--
G|--9--9--x--x--x--x--12--12--x--x--x--x--7--7--x--x--x--x--x--
D|--9--9--x--x--x--x--12--12--x--x--x--x--7--7--x--x--x--x--7--
A|--7--7--x--x--x--x--10--10--x--x--x--x--5--5--x--x--x--x--7--
E|--x--0--x--x--x--x--x---x---x--x--x--x--x--x--x--x--x--x--5--

Stave 4:

E|--7--10-----5-----
B|--8--12--7--5-----
G|--9--12--7--6-----
D|--9--12--7--7-----
A|--7--10--5--7-----
E|-----------------

http://www.guitartabcreator.com
Guitar Tab Creator is intended to store guitar tab created through the tool. It currently does not support in-line text editing. Any text you place in here will be lost. If you need to comment on your tab, please use the "Tab Notes" section located below.