Sound will begin in 5 seconds

this is amazing grace in the key of G

Chords
01234567891011121314151617181920212223
E
B
G
D
A
E
B
0 1 2 3 4 5 6 7 8 9 10 11 12 13 14 15 16 17 18 19 20 21 22 23
Song Science #1: How Pros Use 6 Chords to Write Hit Songs
(/) Slide Up  (\) Slide Down  (h) Hammer On  (p) Pull Off  (b) Bend (r) Release (v) Vibrato

Stave 1:

E|-----------------------------------------10--12-----------------------------------------------
B|--13--12--10--12--12--10--12--8--10--12----------13--12--10--12--12--10--12--8--10--12--------
G|----------------------------------------------------------------------------------------9--7--
D|----------------------------------------------------------------------------------------------
A|----------------------------------------------------------------------------------------------
E|----------------------------------------------------------------------------------------------

Stave 2:

E|----------------------------------
B|----------------------------------
G|----------------------------------
D|--5--5--5--5--5--5--7--9----------
A|----------------------------x--4--
E|----------------------------------

Stave 3:

E|--------------------------------------------------------
B|--------------------------------------------------------
G|--------------4--------------4-----------4--------------
D|-----------2-----2--------2-----2-----2-----2-----4--5--
A|--7--5--3-----------3--3-----------3-----------3--------
E|--------------------------------------------------------

Stave 4:

E|-----------10---------------10--8-----------------------------------
B|--8--8--8------12--8--8--8---------8--8--8--7--5--5/7--7--7--8--10--
G|--------------------------------------------------------------------
D|--------------------------------------------------------------------
A|--------------------------------------------------------------------
E|--------------------------------------------------------------------

Stave 5:

E|----------------------------------------------------------
B|--------------------------------------------7--8----------
G|--5--4--------5--4--------5--4--------5--4----------------
D|--------2--5--------2--5--------2--5----------------------
A|----------------------------------------------------x--2--
E|----------------------------------------------------------

Stave 6:

E|--7--5--7--
B|--8--7--8--
G|--9--7--7--
D|----------
A|----------
E|----------

http://www.guitartabcreator.com
Guitar Tab Creator is intended to store guitar tab created through the tool. It currently does not support in-line text editing. Any text you place in here will be lost. If you need to comment on your tab, please use the "Tab Notes" section located below.