Sound will begin in 5 seconds

this is amazing grace in the key of E

Chords
01234567891011121314151617181920212223
E
B
G
D
A
E
B
0 1 2 3 4 5 6 7 8 9 10 11 12 13 14 15 16 17 18 19 20 21 22 23
Song Science #1: How Pros Use 6 Chords to Write Hit Songs
(/) Slide Up  (\) Slide Down  (h) Hammer On  (p) Pull Off  (b) Bend (r) Release (v) Vibrato

Stave 1:

E|---------------------------------7--9-----------------------------------------------
B|--10--9--7--9--9--7--9--5--7--9--------10--9--7--9--9--7--9--5--7--9----------------
G|----------------------------------------------------------------------6--4----x--2--
D|------------------------------------------------------------------------------------
A|------------------------------------------------------------------------------------
E|------------------------------------------------------------------------------------

Stave 2:

E|----------------------------------------------------------------
B|----------------------------------------------------------------
G|----------------------------------------------------------x--2--
D|----------------------------------------------------------------
A|----8--8--8--8--8--8--10--12--8--8--8--8--8--8--10--12----------
E|----------------------------------------------------------------

Stave 3:

E|---------------------------------------------------------------
B|---------------------------------------------------------------
G|---------------------------------------------------------------
D|---------------7--------------7--------------7-----------------
A|------------5-----5--------5-----5--------5-----5--------7--8--
E|--10--8--6-----------6--6-----------6--6-----------6--6--------

Stave 4:

E|-----------8---------------8--6------------------------------------------
B|--6--6--6-----10--6--6--6--------6--6--6--5--3--3/5--5--5--6--8----------
G|-------------------------------------------------------------------x--2--
D|-------------------------------------------------------------------------
A|-------------------------------------------------------------------------
E|-------------------------------------------------------------------------

Stave 5:

E|---------------------------------------------------
B|---------------------------------------------------
G|--------------------------------------------9--10--
D|--8--7--------8--7--------8--7--------8--7---------
A|--------5--8--------5--8--------5--8---------------
E|---------------------------------------------------

Stave 6:

E|----
B|----
G|----
D|----
A|----
E|----

Stave 7:

E|--7--5--7--
B|--8--7--8--
G|--9--7--7--
D|-----------
A|-----------
E|-----------

http://www.guitartabcreator.com
Guitar Tab Creator is intended to store guitar tab created through the tool. It currently does not support in-line text editing. Any text you place in here will be lost. If you need to comment on your tab, please use the "Tab Notes" section located below.