Sound will begin in 5 seconds

Going Home

01234567891011121314151617181920212223
E
B
G
D
A
E
B
0 1 2 3 4 5 6 7 8 9 10 11 12 13 14 15 16 17 18 19 20 21 22 23
Song Science #1: How Pros Use 6 Chords to Write Hit Songs
(/) Slide Up  (\) Slide Down  (h) Hammer On  (p) Pull Off  (b) Bend (r) Release (v) Vibrato

Stave 1:

E|--------------------------------------------------------------------
B|-----7--------7-----------7-----------------10--10--------10--8--7--
G|-----7-----7-----9-----9-----------7--9---------7------7------------
D|--7-----7-----------7--------7--7--------7----------7---------------
A|--------------------------------------------------------------------
E|--------------------------------------------------------------------

Stave 2:

E|--_---------------------------------------------------------------------------
B|--10----------10--9----------10--------------9--10----------9--10--12p10\9--7--
G|--11------11-------------11--------------11-------------11---------------------
D|--11--11-------------11----------11--11-------------11-------------------------
A|--_---------------------------------------------------------------------------
E|--_---------------------------------------------------------------------------

Stave 3:

E|------------------------------------------------------------------
B|----8--------8--7--------8-----------7--8--------7--8--10p8\7--5--
G|----9-----9-----------9-----------9-----------9-------------------
D|----9--9-----------9--------9--9-----------9----------------------
A|------------------------------------------------------------------
E|------------------------------------------------------------------

Stave 4:

E|----------------------------------------------------------------------------
B|--7--------7-----------7-----------7--7--------7--5--------7--8--10p8\7--5--
G|--7-----7-----9-----9-----7-----7-----6-----6-----------6-------------------
D|--7--7-----------7-----------7--------5--5-----------5----------------------
A|----------------------------------------------------------------------------
E|----------------------------------------------------------------------------

Stave 5:

E|--------------------------------------------------------------------------
B|--8--------8--7--------8-----------8--7--------7-----------7-----------7--
G|--9-----9-----------9-----------9-----7-----7-----9-----9-----------7-----
D|--9--9-----------9--------9--9--------7--7-----------7--------7--7--------
A|--------------------------------------------------------------------------
E|--------------------------------------------------------------------------

Stave 6:

E|---------------------------------------
B|--7--------7--5--------7--8--10p8\7--5--
G|--6-----6-----------6-------------------
D|--5--5-----------5----------------------
A|---------------------------------------
E|---------------------------------------

Stave 7:

E|--------------------------------------------------------------
B|--3--------3--2--------3--------2--3--------3--2--------3-----
G|--4-----4-----------4--------4-----4-----4-----------4--------
D|--4--4-----------4--------4--------4--4-----------4-----------
A|--------------------------------------------------------------
E|--4--------------------------------4-----------------------4--

Stave 8:

E|--------------------------------------------------------------
B|--3--------3--2--------3--------2--3--------3--2--------2h3p2--
G|--4-----4-----------4--------4-----------4-----------4---------
D|--4--4-----------4--------4-----------4-----------4------------
A|--------------------------------------------------------------
E|--------------------------------------------------------------

http://www.guitartabcreator.com
Guitar Tab Creator is intended to store guitar tab created through the tool. It currently does not support in-line text editing. Any text you place in here will be lost. If you need to comment on your tab, please use the "Tab Notes" section located below.