Solo demo for random song version #2 2-21-2019

01234567891011121314151617181920212223
E
B
G
D
A
E
B
0 1 2 3 4 5 6 7 8 9 10 11 12 13 14 15 16 17 18 19 20 21 22 23
(/) Slide Up  (\) Slide Down  (h) Hammer On  (p) Pull Off  (b) Bend (r) Release (v) Vibrato

Stave 1:

Eb|----------------------------------------------------------------------------------
Bb|------7--10--7-----------------------------------------------------------------9--
Gb|--10------------7--9--7--9--7-----------------------------------------------7-----
Db|-------------------------------7--9--7--9--7--------------------------7--9--------
Ab|----------------------------------------------7--9--7--9--7-----7--9--------------
Eb|-------------------------------------------------------------9--------------------

Stave 2:

Eb|--7--10--7--10--7------7--10--7--10--7------
Bb|-------------------10-------------------10--
Gb|--------------------------------------------
Db|--------------------------------------------
Ab|--------------------------------------------
Eb|--------------------------------------------

							http://www.guitartabcreator.com
Chords

genre
Instruments
{"strings":[[[".",".",".",".",".",".",".",".",".",".",".",".",".",".",".",".",".",".",".",".",".",".",".",".",".","."],[".",7,10,7,".",".",".",".",".",".",".",".",".",".",".",".",".",".",".",".",".",".",".",".",".",9],[10,".",".",".",7,9,7,9,7,".",".",".",".",".",".",".",".",".",".",".",".",".",".",".",7,"."],[".",".",".",".",".",".",".",".",".",7,9,7,9,7,".",".",".",".",".",".",".",".",7,9,".","."],[".",".",".",".",".",".",".",".",".",".",".",".",".",".",7,9,7,9,7,".",7,9,".",".",".","."],[".",".",".",".",".",".",".",".",".",".",".",".",".",".",".",".",".",".",".",9,".",".",".",".",".","."]],[[7,10,7,10,7,".",7,10,7,10,7,"."],[".",".",".",".",".",10,".",".",".",".",".",10],[".",".",".",".",".",".",".",".",".",".",".","."],[".",".",".",".",".",".",".",".",".",".",".","."],[".",".",".",".",".",".",".",".",".",".",".","."],[".",".",".",".",".",".",".",".",".",".",".","."]]],"numberofstrings":6,"notes":["DsEb","AsBb","FsGb","CsDb","GsAb","DsEb"],"capo":0,"stringnotes":["Eb3","Bb2","Gb2","Db2","Ab1","Eb1"],"comments":["Stave 1:","Stave 2:"],"timing":[["Q","Q","Q","Q","Q","Q","Q","Q","Q","Q","Q","Q","Q","Q","Q","Q","Q","Q","Q","Q","Q","Q","Q","Q","Q","Q","Q","Q","Q","Q","Q","Q"],["Q","Q","Q","Q","Q","Q","Q","Q","Q","Q","Q","Q"]],"timingvisible":false,"tabcounter":12,"stave":1,"totalstaves":2,"instrument":"6guitar","selectedtuning":"Half Step Down","version":"13"}

Member for

3 weeks 2 days
Submitted by buddyheadley06 on Sun, 2021-02-21 18:34