The Reapers Of Sovereignty Solo Tab

01234567891011121314151617181920212223
E
B
G
D
A
E
B
0 1 2 3 4 5 6 7 8 9 10 11 12 13 14 15 16 17 18 19 20 21 22 23
(/) Slide Up  (\) Slide Down  (h) Hammer On  (p) Pull Off  (b) Bend (r) Release (v) Vibrato

(W|WW) Whole  (H|HH) Half  (Q|QQ) Quarter  (E|EE) 8th (S|SS) 16th  (T|TT) 32nd (X|XX) 64th

Stave 1:
t:  QQ  Q  Q  QQ  Q  Q  QQ  Q  Q  QQ  Q  Q  QQ  QQ  Q  QQ  QQ  Q  QQ  QQ  Q  QQ  QQ  Q  QQ  QQ  QQ  QQ  QQ  QQ  
E|--10--8--7------------10--8--7------------12--10--9-------------12--10--9-------------14--12--10--------------
B|------------10--8--7------------10--8--7-------------12--10--9-------------12--10--9--------------14--12--10--
G|--------------------------------------------------------------------------------------------------------------
D|--------------------------------------------------------------------------------------------------------------
A|--------------------------------------------------------------------------------------------------------------
E|--------------------------------------------------------------------------------------------------------------

Stave 2:
t:  QQ  QQ  QQ  QQ  QQ  QQ  QQ  QQ  QQ  QQ  QQ  QQ  QQ  Q  Q  Q  Q  QQ  Q  QQ  QQ  QQ  QQ  QQ  Q  QQ  QQ  QQ  QQ  
E|--15--14--12--------------17--15--14--------------19------------------------------------------------------------
B|--------------15--14--12--------------17--15--14------------------16-----16--------------16-----16--------------
G|------------------------------------------------------------------16-----16--14------14--16-----16--14------14--
D|---------------------------------------------------------------------------------16---------------------16------
A|----------------------------------------------------------------------------------------------------------------
E|----------------------------------------------------------------------------------------------------------------

Stave 3:
t:  QQ  WW  WW  WW  WW  WW  WW  WW  WW  WW  WW  WW  WW  WW  W  WW  WW  WW  W  WW  
E|-----------------------------------------------------------------15--17-----17--
B|--17--14------17--14------17--14------17--14------15--17-----17-----------------
G|----------16----------16----------16----------16--------------------------------
D|--------------------------------------------------------------------------------
A|--------------------------------------------------------------------------------
E|--------------------------------------------------------------------------------

Stave 4:
t:  QQ  Q  Q  QQ  QQ  QQ  QQ  QQ  QQ  QQ  QQ  QQ  QQ  QQ  QQ  QQ  QQ  QQ  QQ  QQ  QQ  QQ  QQ  QQ  QQ  QQ  Q  QQ  QQ  QQ  
E|----------------------------------------------------------------------------15--12-------------------------------------
B|--15------------------------15--12------15--12------15--12------15--12--------------15--12-----------------------------
G|--14--------12------12--14----------14----------14----------14----------14------------------14--12--14-----14--12------
D|----------------14-------------------------------------------------------------------------------------------------14--
A|-----------------------------------------------------------------------------------------------------------------------
E|-----------------------------------------------------------------------------------------------------------------------

Stave 5:
t:  Q  Q  Q  Q  Q  Q  Q  Q  Q  Q  Q  Q  Q  Q  Q  Q  Q  Q  Q  Q  Q  Q  Q  QQ  Q  Q  Q  QQ  Q  Q  Q  QQ  Q  QQ  Q  QQ  Q  QQ  Q  
E|-------------------------------------------------------------------------------------------------10--7---------10--7---------
B|-----------------------------------------------------------------------10--7--------10--7---------------10--7---------10--7--
G|--------------------------------7--9--7---------------------------------------9--7---------9--7------------------------------
D|--7--9--9--9--7--9--9--7--9--9-----------9--7--7--9--9--9--7--9--9--9--------------------------------------------------------
A|-----------------------------------------------------------------------------------------------------------------------------
E|-----------------------------------------------------------------------------------------------------------------------------

Stave 6:
t:  QQ  Q  QQ  Q  Q  QQ  Q  Q  Q  Q  Q  
E|--10-----10--8--7---------------------
B|-------------------10--8--7-----------
G|-----------------------------7--9--7--
D|--------------------------------------
A|--------------------------------------
E|--------------------------------------

							http://www.guitartabcreator.com
Chords

Tab Notes
The Reapers of Sovereignty Tab Solo Made By Anderson and riffs claimed by me.
genre
Instruments
{"strings":[[[10,8,7,".",".",".",10,8,7,".",".",".",12,10,9,".",".",".",12,10,9,".",".",".",14,12,10,".",".","."],[".",".",".",10,8,7,".",".",".",10,8,7,".",".",".",12,10,9,".",".",".",12,10,9,".",".",".",14,12,10],[".",".",".",".",".",".",".",".",".",".",".",".",".",".",".",".",".",".",".",".",".",".",".",".",".",".",".",".",".","."],[".",".",".",".",".",".",".",".",".",".",".",".",".",".",".",".",".",".",".",".",".",".",".",".",".",".",".",".",".","."],[".",".",".",".",".",".",".",".",".",".",".",".",".",".",".",".",".",".",".",".",".",".",".",".",".",".",".",".",".","."],[".",".",".",".",".",".",".",".",".",".",".",".",".",".",".",".",".",".",".",".",".",".",".",".",".",".",".",".",".","."]],[[15,14,12,".",".",".",17,15,14,".",".",".",19,"_","_","_","_",".","_",".",".",".",".",".","_",".",".",".","."],[".",".",".",15,14,12,".",".",".",17,15,14,".","_","_","_","_",16,"_",16,".",".",".",16,"_",16,".",".","."],[".",".",".",".",".",".",".",".",".",".",".",".",".","_","_","_","_",16,"_",16,14,".",14,16,"_",16,14,".",14],[".",".",".",".",".",".",".",".",".",".",".",".",".","_","_","_","_",".","_",".",".",16,".",".","_",".",".",16,"."],[".",".",".",".",".",".",".",".",".",".",".",".",".","_","_","_","_",".","_",".",".",".",".",".","_",".",".",".","."],[".",".",".",".",".",".",".",".",".",".",".",".",".","_","_","_","_",".","_",".",".",".",".",".","_",".",".",".","."]],[[".",".",".",".",".",".",".",".",".",".",".",".",".",".","_",".",15,17,"_",17],[17,14,".",17,14,".",17,14,".",17,14,".",15,17,"_",17,".",".","_","."],[".",".",16,".",".",16,".",".",16,".",".",16,".",".","_",".",".",".","_","."],[".",".",".",".",".",".",".",".",".",".",".",".",".",".","_",".",".",".","_","."],[".",".",".",".",".",".",".",".",".",".",".",".",".",".","_",".",".",".","_","."],[".",".",".",".",".",".",".",".",".",".",".",".",".",".","_",".",".",".","_","."]],[[".","_","_",".",".",".",".",".",".",".",".",".",".",".",".",".",".",".",".",15,12,".",".",".",".",".","_",".",".","."],[15,"_","_",".",".",".",".",15,12,".",15,12,".",15,12,".",15,12,".",".",".",15,12,".",".",".","_",".",".","."],[14,"_","_",12,".",12,14,".",".",14,".",".",14,".",".",14,".",".",14,".",".",".",".",14,12,14,"_",14,12,"."],[".","_","_",".",14,".",".",".",".",".",".",".",".",".",".",".",".",".",".",".",".",".",".",".",".",".","_",".",".",14],[".","_","_",".",".",".",".",".",".",".",".",".",".",".",".",".",".",".",".",".",".",".",".",".",".",".","_",".",".","."],[".","_","_",".",".",".",".",".",".",".",".",".",".",".",".",".",".",".",".",".",".",".",".",".",".",".","_",".",".","."]],[[".",".",".",".",".",".",".",".",".",".",".",".",".",".",".",".",".",".",".",".",".",".",".",".",".",".",".",".",".",".",".",10,7,".",".",10,7,".","."],[".",".",".",".",".",".",".",".",".",".",".",".",".",".",".",".",".",".",".",".",".",".",".",10,7,".",".",10,7,".",".",".",".",10,7,".",".",10,7],[".",".",".",".",".",".",".",".",".",".",7,9,7,".",".",".",".",".",".",".",".",".",".",".",".",9,7,".",".",9,7,".",".",".",".",".",".",".","."],[7,9,9,9,7,9,9,7,9,9,".",".",".",9,7,7,9,9,9,7,9,9,9,".",".",".",".",".",".",".",".",".",".",".",".",".",".",".","."],[".",".",".",".",".",".",".",".",".",".",".",".",".",".",".",".",".",".",".",".",".",".",".",".",".",".",".",".",".",".",".",".",".",".",".",".",".",".","."],[".",".",".",".",".",".",".",".",".",".",".",".",".",".",".",".",".",".",".",".",".",".",".",".",".",".",".",".",".",".",".",".",".",".",".",".",".",".","."]],[[10,"_",10,8,7,".",".",".",".",".","."],[".","_",".",".",".",10,8,7,".",".","."],[".","_",".",".",".",".",".",".",7,9,7],[".","_",".",".",".",".",".",".",".",".","."],[".","_",".",".",".",".",".",".",".",".","."],[".","_",".",".",".",".",".",".",".",".","."]]],"numberofstrings":6,"notes":["E","B","G","D","A","E","B"],"capo":0,"stringnotes":["E4","B3","G3","D3","A2","E2"],"comments":["Stave 1:","Stave 2:","Stave 3:","Stave 4:","Stave 5:","Stave 6:"],"timing":[["Q","Q","Q","Q","Q","Q","Q","Q","Q","Q","Q","Q","Q","Q","Q","Q","Q","Q","Q","Q","Q","Q","Q","Q","Q","Q","Q","Q","Q","Q"],["Q","Q","Q","Q","Q","Q","Q","Q","Q","Q","Q","Q","Q","Q","Q","Q","Q","Q","Q","Q","Q","Q","Q","Q","Q","Q","Q","Q","Q"],["Q","W","W","W","W","W","W","W","W","W","W","W","W","W","W","W","W","W","W","W"],["Q","Q","Q","Q","Q","Q","Q","Q","Q","Q","Q","Q","Q","Q","Q","Q","Q","Q","Q","Q","Q","Q","Q","Q","Q","Q","Q","Q","Q","Q"],["Q","Q","Q","Q","Q","Q","Q","Q","Q","Q","Q","Q","Q","Q","Q","Q","Q","Q","Q","Q","Q","Q","Q","Q","Q","Q","Q","Q","Q","Q","Q","Q","Q","Q","Q","Q","Q","Q","Q"],["Q","Q","Q","Q","Q","Q","Q","Q","Q","Q","Q"]],"timingvisible":true,"tabcounter":11,"stave":5,"totalstaves":6,"instrument":"6guitar","selectedtuning":"6_standard","version":"13"}

Member for

8 months 1 week
Submitted by buddyheadley06 on Sat, 2021-08-14 12:44