Orin Patterson Practice

01234567891011121314151617181920212223
E
B
G
D
A
E
B
0 1 2 3 4 5 6 7 8 9 10 11 12 13 14 15 16 17 18 19 20 21 22 23
(/) Slide Up  (\) Slide Down  (h) Hammer On  (p) Pull Off  (b) Bend (r) Release (v) Vibrato

(W|WW) Whole  (H|HH) Half  (Q|QQ) Quarter  (E|EE) 8th (S|SS) 16th  (T|TT) 32nd (X|XX) 64th

Stave 1:
t:  Q  Q  Q  Q  Q  Q  Q  Q  Q  Q  Q  Q  Q  Q  Q  Q  Q  Q  Q  Q  Q  Q  Q  Q  Q  Q  Q  Q  Q  Q  
E|--------------------------------------------------------------------------------------------
B|--------------------------------------------------------------------------------------------
G|--------------------------------------------------------------------------------------------
D|-----------5--------------------5--------------------5--------------------5-----------------
A|--------7-----------7--------7-----------7--------7-----------7--------7-----------7--------
E|--0-----------6--5-----0-----------6--5-----0-----------6--5-----0-----------6--5-----0-----

Stave 2:
t:  Q  Q  Q  Q  Q  Q  Q  Q  Q  Q  Q  Q  Q  Q  Q  Q  Q  Q  Q  Q  Q  Q  Q  Q  Q  Q  Q  Q  Q  Q  Q  
E|-----------------------------------------------------------------------------------------------
B|--0--------0--------0--------0--------1-----------0--------0--------0--------0--------1--------
G|-----2--------2--------2--------2--------2-----------2--------2--------2--------2--------2-----
D|--------2--------2--------2--------2--------2-----------2--------2--------2--------2--------2--
A|--0-----------------------------------------------0--------------------------------------------
E|-----------------------------------------------------------------------------------------------

Stave 3:
t:  Q  Q  Q  Q  Q  Q  Q  Q  Q  Q  Q  Q  Q  Q  Q  Q  Q  Q  Q  Q  Q  Q  Q  Q  Q  Q  Q  Q  Q  Q  
E|--------------------------------------------------------------------------------------------
B|--------3--------3--------3--------3--------3--------3--------3--------3--------3--------3--
G|-----0--------0--------0--------0--------0--------0--------0--------0--------0--------0-----
D|--5--------5--------5--------5--------4--------4--------2--------2--------0--------0--------
A|--------------------------------------------------------------------------------------------
E|--------------------------------------------------------------------------------------------

Stave 4:
t:  Q  Q  Q  Q  Q  Q  Q  Q  Q  Q  Q  Q  Q  Q  Q  Q  Q  Q  Q  Q  Q  Q  Q  Q  
E|--------------------------------------------------------------0--1--2--3--
B|--------------------------------------------------0--1--2--3--------------
G|--------------------------------------0--1--2--3--------------------------
D|--------------------------0--1--2--3--------------------------------------
A|--------------0--1--2--3--------------------------------------------------
E|--0--1--2--3--------------------------------------------------------------

							http://www.guitartabcreator.com
Chords

Tab Notes
For Orin Patterson 1st Lesson Is the 'Enter Sandman' Riff Practice Well 2nd Lesson Is 'The Unforgiven' Riff 3rd Lesson is The 'Wake Me up When Septmeber Ends' Riff 4th Lesson is the Spider Stretch Practice These about 20 Minutes a Day Attempt Alternate Picking
genre
Instruments
{"strings":[[[".","_",".",".",".",".",".",".","_",".",".",".",".",".",".","_",".",".",".",".",".",".","_",".",".",".",".",".",".","_"],[".","_",".",".",".",".",".",".","_",".",".",".",".",".",".","_",".",".",".",".",".",".","_",".",".",".",".",".",".","_"],[".","_",".",".",".",".",".",".","_",".",".",".",".",".",".","_",".",".",".",".",".",".","_",".",".",".",".",".",".","_"],[".","_",".",5,".",".",".",".","_",".",5,".",".",".",".","_",".",5,".",".",".",".","_",".",5,".",".",".",".","_"],[".","_",7,".",".",".",7,".","_",7,".",".",".",7,".","_",7,".",".",".",7,".","_",7,".",".",".",7,".","_"],[0,"_",".",".",6,5,".",0,"_",".",".",6,5,".",0,"_",".",".",6,5,".",0,"_",".",".",6,5,".",0,"_"]],[[".",".",".",".",".",".",".",".",".",".",".",".",".",".",".","_",".",".",".",".",".",".",".",".",".",".",".",".",".",".","."],[0,".",".",0,".",".",0,".",".",0,".",".",1,".",".","_",0,".",".",0,".",".",0,".",".",0,".",".",1,".","."],[".",2,".",".",2,".",".",2,".",".",2,".",".",2,".","_",".",2,".",".",2,".",".",2,".",".",2,".",".",2,"."],[".",".",2,".",".",2,".",".",2,".",".",2,".",".",2,"_",".",".",2,".",".",2,".",".",2,".",".",2,".",".",2],[0,".",".",".",".",".",".",".",".",".",".",".",".",".",".","_",0,".",".",".",".",".",".",".",".",".",".",".",".",".","."],[".",".",".",".",".",".",".",".",".",".",".",".",".",".",".","_",".",".",".",".",".",".",".",".",".",".",".",".",".",".","."]],[[".",".",".",".",".",".",".",".",".",".",".",".",".",".",".",".",".",".",".",".",".",".",".",".",".",".",".",".",".","."],[".",".",3,".",".",3,".",".",3,".",".",3,".",".",3,".",".",3,".",".",3,".",".",3,".",".",3,".",".",3],[".",0,".",".",0,".",".",0,".",".",0,".",".",0,".",".",0,".",".",0,".",".",0,".",".",0,".",".",0,"."],[5,".",".",5,".",".",5,".",".",5,".",".",4,".",".",4,".",".",2,".",".",2,".",".",0,".",".",0,".","."],[".",".",".",".",".",".",".",".",".",".",".",".",".",".",".",".",".",".",".",".",".",".",".",".",".",".",".",".",".","."],[".",".",".",".",".",".",".",".",".",".",".",".",".",".",".",".",".",".",".",".",".",".",".",".",".",".",".",".",".","."]],[[".",".",".",".",".",".",".",".",".",".",".",".",".",".",".",".",".",".",".",".",0,1,2,3],[".",".",".",".",".",".",".",".",".",".",".",".",".",".",".",".",0,1,2,3,".",".",".","."],[".",".",".",".",".",".",".",".",".",".",".",".",0,1,2,3,".",".",".",".",".",".",".","."],[".",".",".",".",".",".",".",".",0,1,2,3,".",".",".",".",".",".",".",".",".",".",".","."],[".",".",".",".",0,1,2,3,".",".",".",".",".",".",".",".",".",".",".",".",".",".",".","."],[0,1,2,3,".",".",".",".",".",".",".",".",".",".",".",".",".",".",".",".",".",".",".","."]]],"numberofstrings":6,"notes":["E","B","G","D","A","E","B"],"capo":0,"stringnotes":["E4","B3","G3","D3","A2","E2"],"comments":["Stave 1:","Stave 2:","Stave 3:","Stave 4:"],"timing":[["Q","Q","Q","Q","Q","Q","Q","Q","Q","Q","Q","Q","Q","Q","Q","Q","Q","Q","Q","Q","Q","Q","Q","Q","Q","Q","Q","Q","Q","Q"],["Q","Q","Q","Q","Q","Q","Q","Q","Q","Q","Q","Q","Q","Q","Q","Q","Q","Q","Q","Q","Q","Q","Q","Q","Q","Q","Q","Q","Q","Q","Q"],["Q","Q","Q","Q","Q","Q","Q","Q","Q","Q","Q","Q","Q","Q","Q","Q","Q","Q","Q","Q","Q","Q","Q","Q","Q","Q","Q","Q","Q","Q"],["Q","Q","Q","Q","Q","Q","Q","Q","Q","Q","Q","Q","Q","Q","Q","Q","Q","Q","Q","Q","Q","Q","Q","Q"]],"timingvisible":true,"tabcounter":24,"stave":3,"totalstaves":4,"instrument":"6guitar","selectedtuning":"6_standard","version":"13"}

Member for

9 months 2 weeks
Submitted by buddyheadley06 on Wed, 2021-06-23 15:40