Orin Patterson Practic #2

01234567891011121314151617181920212223
E
B
G
D
A
E
B
0 1 2 3 4 5 6 7 8 9 10 11 12 13 14 15 16 17 18 19 20 21 22 23
(/) Slide Up  (\) Slide Down  (h) Hammer On  (p) Pull Off  (b) Bend (r) Release (v) Vibrato

Stave 1:

E|------------------------------------------12--15--12------------------------------------------
B|----------------------------------12--15--------------15--12----------------------------------
G|--------------------------12--14------------------------------14--12--------------------------
D|------------------12--14----------------------------------------------14--12------------------
A|----------12--14--------------------------------------------------------------14--12----------
E|--12--15------------------------------------------------------------------------------15--12--

Stave 2:

E|--------------------------------------------------------------------------
B|--------3-----------------3-----------------------------------------------
G|-----------2-----------------0--------------0--0--------------------2--0--
D|--0--0--------0-----------------------------------------0--2--0-----------
A|-----------------3--x--3--------0-----------------0--2-----------2--------
E|-----------------------------------3--x--3--------------------------------

							http://www.guitartabcreator.com
Chords

Tab Notes
Pentatonics And Scales
Instruments
{"strings":[[[".",".",".",".",".",".",".",".",".",".",12,15,12,".",".",".",".",".",".",".",".",".","."],[".",".",".",".",".",".",".",".",12,15,".",".",".",15,12,".",".",".",".",".",".",".","."],[".",".",".",".",".",".",12,14,".",".",".",".",".",".",".",14,12,".",".",".",".",".","."],[".",".",".",".",12,14,".",".",".",".",".",".",".",".",".",".",".",14,12,".",".",".","."],[".",".",12,14,".",".",".",".",".",".",".",".",".",".",".",".",".",".",".",14,12,".","."],[12,15,".",".",".",".",".",".",".",".",".",".",".",".",".",".",".",".",".",".",".",15,12]],[[".",".",".",".",".",".",".",".",".",".",".",".",".",".",".",".",".",".",".",".",".",".",".","."],[".",".",3,".",".",".",".",".",3,".",".",".",".",".",".",".",".",".",".",".",".",".",".","."],[".",".",".",2,".",".",".",".",".",0,".",".",".",".",0,0,".",".",".",".",".",".",2,0],[0,0,".",".",0,".",".",".",".",".",".",".",".",".",".",".",".",".",0,2,0,".",".","."],[".",".",".",".",".",3,"x0",3,".",".",0,".",".",".",".",".",0,2,".",".",".",2,".","."],[".",".",".",".",".",".",".",".",".",".",".",3,"x0",3,".",".",".",".",".",".",".",".",".","."]]],"numberofstrings":6,"notes":["E","B","G","D","A","E","B"],"capo":0,"stringnotes":["E4","B3","G3","D3","A2","E2"],"comments":["Stave 1:","Stave 2:","Stave 3:"],"timing":[["W","W","W","W","W","W","W","W","W","W","W","W","W","W","W","W","W","W","W","W","W","W","W"],["W","W","W","W","W","W","W","W","W","W","W","W","W","W","W","W","W","W","W","W","W","W","W","W"],[]],"timingvisible":false,"tabcounter":24,"stave":1,"totalstaves":2,"instrument":"6guitar","selectedtuning":"6_standard","version":"13"}

Member for

9 months 2 weeks
Submitted by buddyheadley06 on Fri, 2021-09-24 14:11