Nothing Else Matters (Orin Practice - #3)

01234567891011121314151617181920212223
E
B
G
D
A
E
B
0 1 2 3 4 5 6 7 8 9 10 11 12 13 14 15 16 17 18 19 20 21 22 23
(/) Slide Up  (\) Slide Down  (h) Hammer On  (p) Pull Off  (b) Bend (r) Release (v) Vibrato

(W|WW) Whole  (H|HH) Half  (Q|QQ) Quarter  (E|EE) 8th (S|SS) 16th  (T|TT) 32nd (X|XX) 64th

Stave 1:
t:    E    E    E    E    E    E    E    E    E    E    E    E    E    E    E    E    E    E    E    
E|-------------------0-----------------------------0-----------------------------0-------------------
B|--------------0---------0-------------------0---------0-------------------0---------0--------------
G|---------0-------------------0---------0-------------------0---------0-------------------0---------
D|---------------------------------------------------------------------------------------------------
A|---------------------------------------------------------------------------------------------------
E|----0-----------------------------0-----------------------------0-----------------------------0----

Stave 2:
t:    E    E    E    E    E    E    E    E    E    E    E    E    E    
E|-------------------0---------7----7--------------7----0--------------
B|--------------0---------0--------------0---------0---------0---------
G|---------0----------------------------------0-------------------0----
D|---------------------------------------------------------------------
A|---------------------------------------------------------------------
E|----0-----------------------------0----------------------------------

Stave 3:
t:    
E|----
B|----
G|----
D|----
A|----
E|----

							http://www.guitartabcreator.com
Chords

Tab Notes
Orin, this is a practice test to see if you can read complex progressions and keys. Make sure to use fingers (not a pick)
genre
Instruments
{"strings":[[[".",".",".",0,".",".",".",".",".",0,".",".",".",".",".",0,".",".","."],[".",".",0,".",0,".",".",".",0,".",0,".",".",".",0,".",0,".","."],[".",0,".",".",".",0,".",0,".",".",".",0,".",0,".",".",".",0,"."],[".",".",".",".",".",".",".",".",".",".",".",".",".",".",".",".",".",".","."],[".",".",".",".",".",".",".",".",".",".",".",".",".",".",".",".",".",".","."],[0,".",".",".",".",".",0,".",".",".",".",".",0,".",".",".",".",".",0]],[[".",".",".",0,".",7,7,".",".",7,0,".","."],[".",".",0,".",0,".",".",0,".",0,".",0,"."],[".",0,".",".",".",".",".",".",0,".",".",".",0],[".",".",".",".",".",".",".",".",".",".",".",".","."],[".",".",".",".",".",".",".",".",".",".",".",".","."],[0,".",".",".",".",".",0,".",".",".",".",".","."]],[[],[],[],[],[],[]]],"numberofstrings":6,"notes":["E","B","G","D","A","E","B"],"capo":0,"stringnotes":["E4","B3","G3","D3","A2","E2"],"comments":["Stave 1:","Stave 2:","Stave 3:"],"timing":[["E","E","E","E","E","E","E","E","E","E","E","E","E","E","E","E","E","E","E"],["E","E","E","E","E","E","E","E","E","E","E","E","E"],[]],"timingvisible":true,"tabcounter":0,"stave":2,"totalstaves":3,"instrument":"6guitar","selectedtuning":"6_standard","version":"13"}

Member for

9 months 2 weeks
Submitted by buddyheadley06 on Fri, 2021-09-24 14:19