Metallica - One Main Solo

01234567891011121314151617181920212223
E
B
G
D
A
E
B
0 1 2 3 4 5 6 7 8 9 10 11 12 13 14 15 16 17 18 19 20 21 22 23
(/) Slide Up  (\) Slide Down  (h) Hammer On  (p) Pull Off  (b) Bend (r) Release (v) Vibrato

Stave 1:

E|--19--15--12--19--15--12--19--15--12--19--15--12--19--15--12--19--15--12--19--15--12--19--15--12--
B|--------------------------------------------------------------------------------------------------
G|--------------------------------------------------------------------------------------------------
D|--------------------------------------------------------------------------------------------------
A|--------------------------------------------------------------------------------------------------
E|--------------------------------------------------------------------------------------------------

Stave 2:

E|--20--15--12--20--15--12--20--15--12--20--15--12--20--15--12--20--15--12--20--15--12--20--15--12--
B|--------------------------------------------------------------------------------------------------
G|--------------------------------------------------------------------------------------------------
D|--------------------------------------------------------------------------------------------------
A|--------------------------------------------------------------------------------------------------
E|--------------------------------------------------------------------------------------------------

Stave 3:

E|--------------------------------------------------------------------------------------------------
B|--19--15--12--19--15--12--19--15--12--19--15--12--19--15--12--19--15--12--19--15--12--19--15--12--
G|--------------------------------------------------------------------------------------------------
D|--------------------------------------------------------------------------------------------------
A|--------------------------------------------------------------------------------------------------
E|--------------------------------------------------------------------------------------------------

Stave 4:

E|--------------------------------------------------------------------------------------------------
B|--20--15--12--20--15--12--20--15--12--20--15--12--20--15--12--20--15--12--20--15--12--20--15--12--
G|--------------------------------------------------------------------------------------------------
D|--------------------------------------------------------------------------------------------------
A|--------------------------------------------------------------------------------------------------
E|--------------------------------------------------------------------------------------------------

Stave 5:

E|--------------------------------------------------------------------------------------------------
B|--17--13--10--17--13--10--17--13--10--17--13--10--17--13--10--17--13--10--17--13--10--17--13--10--
G|--------------------------------------------------------------------------------------------------
D|--------------------------------------------------------------------------------------------------
A|--------------------------------------------------------------------------------------------------
E|--------------------------------------------------------------------------------------------------

Stave 6:

E|--------------------------------------------------------------------------------------------------
B|--18--13--10--18--13--10--18--13--10--18--13--10--18--13--10--18--13--10--18--13--10--18--13--10--
G|--------------------------------------------------------------------------------------------------
D|--------------------------------------------------------------------------------------------------
A|--------------------------------------------------------------------------------------------------
E|--------------------------------------------------------------------------------------------------

Stave 7:

E|------------------------------------------------------------------------------------------------
B|--17--12--14--17--12--17--10--17--12--17--10--17--8--17--10--17--8--17--7--17--8--17--7--17--5--
G|------------------------------------------------------------------------------------------------
D|------------------------------------------------------------------------------------------------
A|------------------------------------------------------------------------------------------------
E|------------------------------------------------------------------------------------------------

Stave 8:

E|------------------------------14--14--14--15--15--15--17--17--17--17--------------17--17--17--17--
B|--12--12--12--12--12--12--12------------------------------------------15--15--15------------------
G|--------------------------------------------------------------------------------------------------
D|--------------------------------------------------------------------------------------------------
A|--------------------------------------------------------------------------------------------------
E|--------------------------------------------------------------------------------------------------

Stave 9:

E|--22-----22-----22------------------15--17--15------------------15--17--15------------------
B|--------------------------------17--------------17--15--17--19--------------17--15--17--19--
G|--------------------------------------------------------------------------------------------
D|--------------------------------------------------------------------------------------------
A|--------------------------------------------------------------------------------------------
E|--------------------------------------------------------------------------------------------

Stave 10:

E|--15--17--15------------------15--17--15------------------
B|--------------17--15--17--19--------------17--15--17--19--
G|----------------------------------------------------------
D|----------------------------------------------------------
A|----------------------------------------------------------
E|----------------------------------------------------------

Stave 11:

E|--15--17--15------------------15--17--15------------------15--19--17------19--17------19--17------19--17------
B|--------------17--15--17--19--------------17--15--17--19--------------15----------15----------15----------15--
G|--------------------------------------------------------------------------------------------------------------
D|--------------------------------------------------------------------------------------------------------------
A|--------------------------------------------------------------------------------------------------------------
E|--------------------------------------------------------------------------------------------------------------

Stave 12:

E|--19--17------19--17------19--17------19--17--15------15------15------15------15--
B|----------15----------15----------15--------------18------18------18------18------
G|----------------------------------------------------------------------------------
D|----------------------------------------------------------------------------------
A|----------------------------------------------------------------------------------
E|----------------------------------------------------------------------------------

Stave 13:

E|--18--15------15--18--15------15--19--17--15--17-----17--15--14--15--
B|----------18--------------18-----------------------------------------
G|---------------------------------------------------------------------
D|---------------------------------------------------------------------
A|---------------------------------------------------------------------
E|---------------------------------------------------------------------

Stave 14:

E|-----------------------------------------------------------------------------------------------
B|--19--17--15--17-----15--17--15--13--15-----13--15--13--12--13-----12--13--12------12----------
G|-------------------------------------------------------------------------------14------14--12--
D|-----------------------------------------------------------------------------------------------
A|-----------------------------------------------------------------------------------------------
E|-----------------------------------------------------------------------------------------------

Stave 15:

E|------------------------------------------------------------------------------------
B|------------------------------------------------------------------------------------
G|--14--12------12------12--14-----14-----14-----14-----14-----14-----14--14--12------
D|----------14------14------------------------------------------------------------14--
A|------------------------------------------------------------------------------------
E|------------------------------------------------------------------------------------

Stave 16:

E|---------------------------------------------------------------------------------
B|--------------------------------------------------------15-------------15--------
G|--12------12--------------------------------------------15-------------15--------
D|------14------14--13--12------------------------17--17---------17--17------------
A|--------------------------14--13--12--10-----------------------------------------
E|---------------------------------------------------------------------------------

Stave 17:

E|-----------------------------------------------------------------------------
B|----------15----------15-----17--17--17--17--17--17--17--17--17--15------15--
G|----------15----------15-----17--17--17--17--17--17--17--17--17--15------15--
D|--17--17------17--17-------------------------------------------------17------
A|-----------------------------------------------------------------------------
E|-----------------------------------------------------------------------------

Stave 18:

E|----------------------------------------------------------
B|----------15----------15-----17-----17--15-----15-----15--
G|----------15----------15-----17-----17--15-----15---------
D|--17--17------17--17--------------------------------------
A|----------------------------------------------------------
E|----------------------------------------------------------

Stave 19:

E|------15------15------15------15------15------15------------
B|--18------18------18------18------18------18---------18-----
G|------------------------------------------------------------
D|------------------------------------------------------------
A|------------------------------------------------------------
E|------------------------------------------------------------

							http://www.guitartabcreator.com
Chords

Tab Notes
One Main Solo by Kirk Hammett Song From ...And Justice For All Made by Metallica
genre
Instruments
{"strings":[[[19,15,12,19,15,12,19,15,12,19,15,12,19,15,12,19,15,12,19,15,12,19,15,12],[".",".",".",".",".",".",".",".",".",".",".",".",".",".",".",".",".",".",".",".",".",".",".","."],[".",".",".",".",".",".",".",".",".",".",".",".",".",".",".",".",".",".",".",".",".",".",".","."],[".",".",".",".",".",".",".",".",".",".",".",".",".",".",".",".",".",".",".",".",".",".",".","."],[".",".",".",".",".",".",".",".",".",".",".",".",".",".",".",".",".",".",".",".",".",".",".","."],[".",".",".",".",".",".",".",".",".",".",".",".",".",".",".",".",".",".",".",".",".",".",".","."]],[[20,15,12,20,15,12,20,15,12,20,15,12,20,15,12,20,15,12,20,15,12,20,15,12],[".",".",".",".",".",".",".",".",".",".",".",".",".",".",".",".",".",".",".",".",".",".",".","."],[".",".",".",".",".",".",".",".",".",".",".",".",".",".",".",".",".",".",".",".",".",".",".","."],[".",".",".",".",".",".",".",".",".",".",".",".",".",".",".",".",".",".",".",".",".",".",".","."],[".",".",".",".",".",".",".",".",".",".",".",".",".",".",".",".",".",".",".",".",".",".",".","."],[".",".",".",".",".",".",".",".",".",".",".",".",".",".",".",".",".",".",".",".",".",".",".","."]],[[".",".",".",".",".",".",".",".",".",".",".",".",".",".",".",".",".",".",".",".",".",".",".","."],[19,15,12,19,15,12,19,15,12,19,15,12,19,15,12,19,15,12,19,15,12,19,15,12],[".",".",".",".",".",".",".",".",".",".",".",".",".",".",".",".",".",".",".",".",".",".",".","."],[".",".",".",".",".",".",".",".",".",".",".",".",".",".",".",".",".",".",".",".",".",".",".","."],[".",".",".",".",".",".",".",".",".",".",".",".",".",".",".",".",".",".",".",".",".",".",".","."],[".",".",".",".",".",".",".",".",".",".",".",".",".",".",".",".",".",".",".",".",".",".",".","."]],[[".",".",".",".",".",".",".",".",".",".",".",".",".",".",".",".",".",".",".",".",".",".",".","."],[20,15,12,20,15,12,20,15,12,20,15,12,20,15,12,20,15,12,20,15,12,20,15,12],[".",".",".",".",".",".",".",".",".",".",".",".",".",".",".",".",".",".",".",".",".",".",".","."],[".",".",".",".",".",".",".",".",".",".",".",".",".",".",".",".",".",".",".",".",".",".",".","."],[".",".",".",".",".",".",".",".",".",".",".",".",".",".",".",".",".",".",".",".",".",".",".","."],[".",".",".",".",".",".",".",".",".",".",".",".",".",".",".",".",".",".",".",".",".",".",".","."]],[[".",".",".",".",".",".",".",".",".",".",".",".",".",".",".",".",".",".",".",".",".",".",".","."],[17,13,10,17,13,10,17,13,10,17,13,10,17,13,10,17,13,10,17,13,10,17,13,10],[".",".",".",".",".",".",".",".",".",".",".",".",".",".",".",".",".",".",".",".",".",".",".","."],[".",".",".",".",".",".",".",".",".",".",".",".",".",".",".",".",".",".",".",".",".",".",".","."],[".",".",".",".",".",".",".",".",".",".",".",".",".",".",".",".",".",".",".",".",".",".",".","."],[".",".",".",".",".",".",".",".",".",".",".",".",".",".",".",".",".",".",".",".",".",".",".","."]],[[".",".",".",".",".",".",".",".",".",".",".",".",".",".",".",".",".",".",".",".",".",".",".","."],[18,13,10,18,13,10,18,13,10,18,13,10,18,13,10,18,13,10,18,13,10,18,13,10],[".",".",".",".",".",".",".",".",".",".",".",".",".",".",".",".",".",".",".",".",".",".",".","."],[".",".",".",".",".",".",".",".",".",".",".",".",".",".",".",".",".",".",".",".",".",".",".","."],[".",".",".",".",".",".",".",".",".",".",".",".",".",".",".",".",".",".",".",".",".",".",".","."],[".",".",".",".",".",".",".",".",".",".",".",".",".",".",".",".",".",".",".",".",".",".",".","."]],[[".",".",".",".",".",".",".",".",".",".",".",".",".",".",".",".",".",".",".",".",".",".",".",".","."],[17,12,14,17,12,17,10,17,12,17,10,17,8,17,10,17,8,17,7,17,8,17,7,17,5],[".",".",".",".",".",".",".",".",".",".",".",".",".",".",".",".",".",".",".",".",".",".",".",".","."],[".",".",".",".",".",".",".",".",".",".",".",".",".",".",".",".",".",".",".",".",".",".",".",".","."],[".",".",".",".",".",".",".",".",".",".",".",".",".",".",".",".",".",".",".",".",".",".",".",".","."],[".",".",".",".",".",".",".",".",".",".",".",".",".",".",".",".",".",".",".",".",".",".",".",".","."]],[[".",".",".",".",".",".",".",14,14,14,15,15,15,17,17,17,17,".",".",".",17,17,17,17],[12,12,12,12,12,12,12,".",".",".",".",".",".",".",".",".",".",15,15,15,".",".",".","."],[".",".",".",".",".",".",".",".",".",".",".",".",".",".",".",".",".",".",".",".",".",".",".","."],[".",".",".",".",".",".",".",".",".",".",".",".",".",".",".",".",".",".",".",".",".",".",".","."],[".",".",".",".",".",".",".",".",".",".",".",".",".",".",".",".",".",".",".",".",".",".",".","."],[".",".",".",".",".",".",".",".",".",".",".",".",".",".",".",".",".",".",".",".",".",".",".","."]],[[22,"_",22,"_",22,"_","_","_","_",".",15,17,15,".",".",".",".",15,17,15,".",".",".","."],[".","_",".","_",".","_","_","_","_",17,".",".",".",17,15,17,19,".",".",".",17,15,17,19],[".","_",".","_",".","_","_","_","_",".",".",".",".",".",".",".",".",".",".",".",".",".",".","."],[".","_",".","_",".","_","_","_","_",".",".",".",".",".",".",".",".",".",".",".",".",".",".","."],[".","_",".","_",".","_","_","_","_",".",".",".",".",".",".",".",".",".",".",".",".",".",".","."],[".","_",".","_",".","_","_","_","_",".",".",".",".",".",".",".",".",".",".",".",".",".",".","."]],[[15,17,15,".",".",".",".",15,17,15,".",".",".","."],[".",".",".",17,15,17,19,".",".",".",17,15,17,19],[".",".",".",".",".",".",".",".",".",".",".",".",".","."],[".",".",".",".",".",".",".",".",".",".",".",".",".","."],[".",".",".",".",".",".",".",".",".",".",".",".",".","."],[".",".",".",".",".",".",".",".",".",".",".",".",".","."]],[[15,17,15,".",".",".",".",15,17,15,".",".",".",".",15,19,17,".",19,17,".",19,17,".",19,17,"."],[".",".",".",17,15,17,19,".",".",".",17,15,17,19,".",".",".",15,".",".",15,".",".",15,".",".",15],[".",".",".",".",".",".",".",".",".",".",".",".",".",".",".",".",".",".",".",".",".",".",".",".",".",".","."],[".",".",".",".",".",".",".",".",".",".",".",".",".",".",".",".",".",".",".",".",".",".",".",".",".",".","."],[".",".",".",".",".",".",".",".",".",".",".",".",".",".",".",".",".",".",".",".",".",".",".",".",".",".","."],[".",".",".",".",".",".",".",".",".",".",".",".",".",".",".",".",".",".",".",".",".",".",".",".",".",".","."]],[[19,17,".",19,17,".",19,17,".",19,17,15,".",15,".",15,".",15,".",15],[".",".",15,".",".",15,".",".",15,".",".",".",18,".",18,".",18,".",18,"."],[".",".",".",".",".",".",".",".",".",".",".",".",".",".",".",".",".",".",".","."],[".",".",".",".",".",".",".",".",".",".",".",".",".",".",".",".",".",".",".","."],[".",".",".",".",".",".",".",".",".",".",".",".",".",".",".",".",".",".",".","."],[".",".",".",".",".",".",".",".",".",".",".",".",".",".",".",".",".",".",".","."]],[[18,15,".",15,18,15,".",15,19,17,15,17,"_",17,15,14,15],[".",".",18,".",".",".",18,".",".",".",".",".","_",".",".",".","."],[".",".",".",".",".",".",".",".",".",".",".",".","_",".",".",".","."],[".",".",".",".",".",".",".",".",".",".",".",".","_",".",".",".","."],[".",".",".",".",".",".",".",".",".",".",".",".","_",".",".",".","."],[".",".",".",".",".",".",".",".",".",".",".",".","_",".",".",".","."]],[[".",".",".",".","_",".",".",".",".",".","_",".",".",".",".",".","_",".",".",".",".",".",".","."],[19,17,15,17,"_",15,17,15,13,15,"_",13,15,13,12,13,"_",12,13,12,".",12,".","."],[".",".",".",".","_",".",".",".",".",".","_",".",".",".",".",".","_",".",".",".",14,".",14,12],[".",".",".",".","_",".",".",".",".",".","_",".",".",".",".",".","_",".",".",".",".",".",".","."],[".",".",".",".","_",".",".",".",".",".","_",".",".",".",".",".","_",".",".",".",".",".",".","."],[".",".",".",".","_",".",".",".",".",".","_",".",".",".",".",".","_",".",".",".",".",".",".","."]],[[".",".",".",".",".",".",".","_",".","_",".","_",".","_",".","_",".","_",".",".",".","."],[".",".",".",".",".",".",".","_",".","_",".","_",".","_",".","_",".","_",".",".",".","."],[14,12,".",12,".",12,14,"_",14,"_",14,"_",14,"_",14,"_",14,"_",14,14,12,"."],[".",".",14,".",14,".",".","_",".","_",".","_",".","_",".","_",".","_",".",".",".",14],[".",".",".",".",".",".",".","_",".","_",".","_",".","_",".","_",".","_",".",".",".","."],[".",".",".",".",".",".",".","_",".","_",".","_",".","_",".","_",".","_",".",".",".","."]],[[".",".",".",".",".",".",".",".",".",".","_","_",".",".",".","_",".",".",".","_","_"],[".",".",".",".",".",".",".",".",".",".","_","_",".",".",15,"_",".",".",15,"_","_"],[12,".",12,".",".",".",".",".",".",".","_","_",".",".",15,"_",".",".",15,"_","_"],[".",14,".",14,13,12,".",".",".",".","_","_",17,17,".","_",17,17,".","_","_"],[".",".",".",".",".",".",14,13,12,10,"_","_",".",".",".","_",".",".",".","_","_"],[".",".",".",".",".",".",".",".",".",".","_","_",".",".",".","_",".",".",".","_","_"]],[[".",".",".",".",".",".","_",".",".",".",".",".",".",".",".",".",".",".","."],[".",".",15,".",".",15,"_",17,17,17,17,17,17,17,17,17,15,".",15],[".",".",15,".",".",15,"_",17,17,17,17,17,17,17,17,17,15,".",15],[17,17,".",17,17,".","_",".",".",".",".",".",".",".",".",".",".",17,"."],[".",".",".",".",".",".","_",".",".",".",".",".",".",".",".",".",".",".","."],[".",".",".",".",".",".","_",".",".",".",".",".",".",".",".",".",".",".","."]],[[".",".",".",".",".",".","_",".","_",".",".","_",".","_","."],[".",".",15,".",".",15,"_",17,"_",17,15,"_",15,"_",15],[".",".",15,".",".",15,"_",17,"_",17,15,"_",15,"_","."],[17,17,".",17,17,".","_",".","_",".",".","_",".","_","."],[".",".",".",".",".",".","_",".","_",".",".","_",".","_","."],[".",".",".",".",".",".","_",".","_",".",".","_",".","_","."]],[[".",15,".",15,".",15,".",15,".",15,".",15,"_",".","_"],[18,".",18,".",18,".",18,".",18,".",18,".","_",18,"_"],[".",".",".",".",".",".",".",".",".",".",".",".","_",".","_"],[".",".",".",".",".",".",".",".",".",".",".",".","_",".","_"],[".",".",".",".",".",".",".",".",".",".",".",".","_",".","_"],[".",".",".",".",".",".",".",".",".",".",".",".","_",".","_"]]],"numberofstrings":6,"notes":["E","B","G","D","A","E","B"],"capo":0,"stringnotes":["E4","B3","G3","D3","A2","E2"],"comments":["Stave 1:","Stave 2:","Stave 3:","Stave 4:","Stave 5:","Stave 6:","Stave 7:","Stave 8:","Stave 9:","Stave 10:","Stave 11:","Stave 12:","Stave 13:","Stave 14:","Stave 15:","Stave 16:","Stave 17:","Stave 18:","Stave 19:"],"timing":[["W","W","W","W","W","W","W","W","W","W","W","W","W","W","W","W","W","W","W","W","W","W","W","W"],["W","W","W","W","W","W","W","W","W","W","W","W","W","W","W","W","W","W","W","W","W","W","W","W"],["W","W","W","W","W","W","W","W","W","W","W","W","W","W","W","W","W","W","W","W","W","W","W","W"],["W","W","W","W","W","W","W","W","W","W","W","W","W","W","W","W","W","W","W","W","W","W","W","W"],["W","W","W","W","W","W","W","W","W","W","W","W","W","W","W","W","W","W","W","W","W","W","W","W"],["W","W","W","W","W","W","W","W","W","W","W","W","W","W","W","W","W","W","W","W","W","W","W","W"],["W","W","W","W","W","W","W","W","W","W","W","W","W","W","W","W","W","W","W","W","W","W","W","W","W"],["W","W","W","W","W","W","W","W","W","W","W","W","W","W","W","W","W","W","W","W","W","W","W","W"],["W","W","W","W","W","W","W","W","W","W","W","W","W","W","W","W","W","W","W","W","W","W","W","W"],["W","W","W","W","W","W","W","W","W","W","W","W","W","W"],["W","W","W","W","W","W","W","W","W","W","W","W","W","W","W","W","W","W","W","W","W","W","W","W","W","W","W"],["W","W","W","W","W","W","W","W","W","W","W","W","W","W","W","W","W","W","W","W"],["W","W","W","W","W","W","W","W","W","W","W","W","W","W","W","W","W"],["W","W","W","W","W","W","W","W","W","W","W","W","W","W","W","W","W","W","W","W","W","W","W","W"],["W","W","W","W","W","W","W","W","W","W","W","W","W","W","W","W","W","W","W","W","W","W"],["W","W","W","W","W","W","W","W","W","W","W","W","W","W","W","W","W","W","W","W","W"],["W","W","W","W","W","W","W","W","W","W","W","W","W","W","W","W","W","W","W"],["W","W","W","W","W","W","W","W","W","W","W","W","W","W","W"],["W","W","W","W","W","W","W","W","W","W","W","W","W","W","W"]],"timingvisible":false,"tabcounter":15,"stave":18,"totalstaves":19,"instrument":"6guitar","selectedtuning":"6_standard","version":"13"}

Member for

8 months 1 week
Submitted by buddyheadley06 on Fri, 2021-08-27 14:04